Your One-Stop Source For
Music Lyrics
Bass and Guitar Tabs
and More...
Music Lyrics Bass and Guitar Tabs

 

The Tabs Are Below

Learn To Read Tab
Chords Handbook
Corrections & Additions
Get Official Tab
Everclear tabs @ 911Tabs

Drunk Again off of Nervous and Weird

by Everclear

Tabbed by TNitz303(Tyler Nitzke)

 

INTRO(Distorted) 3x MAIN RIFF

e : 7-7-10-10--9--9-6-6-|--------------------|------------------|

B :.9-9-12-12-11-11-8-8-|8-8-11-11-10-10-7-7.|------------------|

G : --------------------|9-9-12-12-11-11-8-8-|------------------|

D : --------------------|--------------------|--------------4-3\|

A :.--------------------|-------------------.|2-2-2-2-2-4-5-2-1\|

E : --------------------|--------------------|0-0-0-0-0-2-3-----|

CHORUS PM-----]

e :---------fdb---------------fdb----|

B :----------------------------------|

G :----------------------------------|

D :------------------2-2-2-4-5-------|

A :2-2-2-4-5---------0-0-0-2-3-------|

E :0-0-0-2-3-------------------------|

In between the two progressions is a high pitched feedback noise

that is an E pitch,so to do that you can play the top string and tap

on a harmonic 8va or 15ma(one octave higher or two,whichever is better

on your amp).

 

I don't have the solo yet but I'll try to figure it out. If anyone knows

anything by Everclear please post it or Email me.TNitz303 is my America

Online address.

 

Return to my to my Everclear tabs page

The Tablature is Copyright its respective owners.

Sign Up For My Newsletter
Subscribe | Unsubscribe

Site Map | Disclaimer | Privacy Policy | Media Kit | Submissions/Corrections

Website © 2000-2014 mattsmusicpage.com. All rights reserved.

Legal & DMCA: Matt's Music Page has been providing lyrics and tabs in a legal way, paying royalties each year to a few organizations. Then, all lyrics and tabs were removed from the site. Now, there's a new owner to the site, which purchased it August 26, 2014, and he is in negotiation to obtain licensing from BMI at the moment. If you have a specific DMCA request -- please do not hesitate to contact me via the contact button on top. I will do my very best to keep this site fully legal.

Get our toolbar!