Your One-Stop Source For
Music Lyrics
Bass and Guitar Tabs
and More...
Music Lyrics Bass and Guitar Tabs

 

The Tabs Are Below

Learn To Read Tab
Chords Handbook
Corrections & Additions
Get Official Tab
Everclear tabs @ 911Tabs

 

Here is the bass tab for the song "white men in black suits" by everclear.

He palm-mutes with a pick in this song. Find out the timing and everthing

by lsitening to the cd "so much for the afterglow".

 

Tabbed By: Anthony Tassoni

intro

G|-----------------------------

D|----3-3-3-3-3-3-3-3-3-3-3----

A|-----------------------------

E|-----------------------------

 

....keep doing that for a while until he sings

 

"I'm just a boy...."

G|------------------------------------

D|----0-0-0-0---------3-3-3-3---------

A|------------3-3-3-3---------3-3-3-3-

E|------------------------------------

 

"I think its getting better for the two of us....."

G|-------------------------------------------------------------------

D|------------------------------------0-0-0-0-0-0-0-0-1-1-1-1-1-1-1-1

A|--0-0-0-0-0-0-0-0-0-1-1-1-1-1-1-1-1--------------------------------

E|-------------------------------------------------------------------

"I think they are diminishenes..."

G|-----------------------------------------

D|----3-3-3-3------------------------------

A|------------3-3-3-3-0-0-0-0-1-1-1-1------

E|-----------------------------------------

 

if you have any questions you can email me at roccobladr@hotmail.com

or IM at roccobladr.enjoy!!

 

 

Return to my to my Everclear bass tabs page

The Tablature is Copyright its respective owners.

Sign Up For My Newsletter
Subscribe | Unsubscribe

Site Map | Disclaimer | Privacy Policy | Media Kit | Submissions/Corrections

Website © 2000-2014 mattsmusicpage.com. All rights reserved.

Legal & DMCA: Matt's Music Page has been providing lyrics and tabs in a legal way, paying royalties each year to a few organizations. Then, all lyrics and tabs were removed from the site. Now, there's a new owner to the site, which purchased it August 26, 2014, and he is in negotiation to obtain licensing from BMI at the moment. If you have a specific DMCA request -- please do not hesitate to contact me via the contact button on top. I will do my very best to keep this site fully legal.

Get our toolbar!