Your One-Stop Source For
Music Lyrics
Bass and Guitar Tabs
and More...
>Music Lyrics Bass and Guitar Tabs

 

The Tabs Are Below

Learn To Read Tab
Chords Handbook
Corrections & Additions
Get Official Tab
Everclear tabs @ 911Tabs

 Artist: Everclear

Song: Volvo Driving Soccer Mom

Album: Slow Motion Daydream

Tab by Psychobunnykiller

Verse.

G--------------]

D--------------]

A-33-----------]

E----55-33-11--]

 

Verse Pt.2

 

G--------------------]

D--------------------]

A--------------------]

E-11111111-33333333--]

 

Chorus

 

G--------------]

D--------------]

A-33-----------]

E----44-33-11--]

 

Bridge

Pt.1

 

G------------------------------------------]

D------------------------------------------]

A-33333333---------------------------------]

E----------11111111-33333333-1-------------]

 

Pt.2

 

G--------------------------------------]

D--------------------------------------]

A-33333333-----------------------------]

E----------11111111-33333333-11111111--]

 

Pt.3

 

G--------------------------]

D--------------------------]

A-33-33--------------------]

E-------11-11-33-33-11-11--]

 

Pt.4

 

G-----------------------]

D-----------------------]

A-33-33-----------------]

E-------11-11-33333333--]

 

Outro

 

G-----------------------------]

D-----------------------------]

A-33-33-33-33-33-33-3~--------]

E-----------------------------]

 

 

Order

 

Verse x3

Verse pt.2 x1

Chorus x2

Verse x7

Verse pt.2 x1

Chorus x4

Bridge pt.1 x1 (only start playing on the second w.d.a.t.p.s.g)

Bridge pt.2 x2

Bridge pt.3 x1

Bridge pt.4 x1

Chorus x4

Outro

 

~ hold note

 

 

 

Return to my to my Everclear bass tabs page

The Tablature is Copyright its respective owners.

Sign Up For My Newsletter
Subscribe | Unsubscribe

Site Map | Disclaimer | Privacy Policy | Media Kit | Submissions/Corrections

Website © 2000-2014 mattsmusicpage.com. All rights reserved.

Legal & DMCA: Matt's Music Page has been providing lyrics and tabs in a legal way, paying royalties each year to a few organizations. Then, all lyrics and tabs were removed from the site. Now, there's a new owner to the site, which purchased it August 26, 2014, and he is in negotiation to obtain licensing from BMI at the moment. If you have a specific DMCA request -- please do not hesitate to contact me via the contact button on top. I will do my very best to keep this site fully legal.

Get our toolbar!

 


Genshin Impact Vinyl Record Gift Box
$
Genshin Impact Vinyl Record Gift Box picture


OFFICIAL* Hololive EN Myth Mori Calliope 2022 Vinyl Record SHINIGAMI NOTE LP
$
OFFICIAL* Hololive EN Myth Mori Calliope 2022 Vinyl Record SHINIGAMI NOTE LP picture


78RPM CHILDRENS RECORD - 1950 BILLY BOY - PETER PAN RED VINYL/PLASTIC RECORD
$
78RPM CHILDRENS RECORD - 1950 BILLY BOY - PETER PAN RED VINYL/PLASTIC RECORD picture


LOT of 20 -12" LP VINYL Record album COVERS ONLY Party Decoration Art random
$
LOT of 20 -12


Pop Avengers #985 Loki w/ Scepter GITD - EE Ex W/ Protector Double Boxed
$
Pop Avengers #985 Loki w/ Scepter GITD - EE Ex W/ Protector Double Boxed picture


Funko Pop Vinyl: Hasbro - Simon #129 IN HAND
$
Funko Pop Vinyl: Hasbro - Simon #129 IN HAND picture


Lot of 4 Edison Diamond Disc vintage 78 records Moonlight Trio Mayo and Tally
$
Lot of 4 Edison Diamond Disc vintage 78 records Moonlight Trio Mayo and Tally picture


Merry Christmas LP William Daly Featuring Lefton Candy Cane Elves Cover Art Elf
$
Merry Christmas LP William Daly Featuring Lefton Candy Cane Elves Cover Art Elf picture


VINTAGE ANIME four record lp soundtrack compilation japan vinyl astroboy RARE
$
VINTAGE ANIME four record lp soundtrack compilation japan vinyl astroboy RARE picture


Funko POP Broadway Hamilton Lin-Manuel Miranda Vinyl Figure
$
Funko POP Broadway Hamilton Lin-Manuel Miranda Vinyl Figure picture