Your One-Stop Source For
Music Lyrics
Bass and Guitar Tabs
and More...
Music Lyrics Bass and Guitar Tabs

 

The Tabs Are Below

Learn To Read Tab
Chords Handbook
Corrections & Additions
Get Official Tab
Everclear tabs @ 911Tabs

Everclear

Brand New Skin

 

E :3-3-3-3-3-3-3\-1-|1---------------|----------------|

B :3-3-3-3-3-3-3\-1-|1---------------|----------------|

G :4-4-4-4-4-4-4\-2-|2---------------|----------------|

D :5-5-5-5-5-5-5\-3-|3---------------|----------------|

A :5-5-5-5-5-5-5\-3-|3---------------|----------------|

E :3-3-3-3-3-3-3\-1-|1---------------|----------------|

 

E :1------------------|----------------|| ----------------|

B :--1----------------|----------------|| ----------------|

G :----2--------------|----------------||*----------------|

D :------3------------|----------------||*--------3-3-3-x-|

A :------3------------|----------------|| 3-3-3-x-1-1-1-x-|

E :------1------------|----------------|| 1-1-1-x---------|

 

E :---------------- 2|----------------|---------------- 2|

B :---------------- ||7-7-7-7-3-3-3-3-|*-------5-6-5-5- ||

G :----------------*||7-7-7-7-3-3-3-3-|2-2-2-2-5-5-5-5-*||

D :--------5-5-5-x-*||7-7-7-7-3-3-3-3-|3-3-3-3-5-5-5-5-*||

A :5-5-5-x-3-3-3-x- ||5-5-5-5-1-1-1-1-|3-3-3-3-3-3-3-3- ||

E :3-3-3-x--------- ||5-5-5-5-*-------|1-1-1-1-*------- ||

 

E :----------------|1---------------|| ----------------|

B :7-7-7-7-3-3-3-3-|1---------------|| *---------------|

G :7-7-7-7-3-3-3-3-|2---------------||*2-2-2-1-2-x-x-2-|

D :7-7-7-7-3-3-3-3-|3---------------||*3-3-3-2-3-x-x-3-|

A :5-5-5-5-1-1-1-1-|3---------------|| 3-3-3-2-3-x-x-3-|

E :5-5-5-5-*-------|1---------------|| 1-1-1-0-1-x-x-1-|

 

E :---------------- 3|1-------------1-1|1---*-----------|

B :----------3-3-3- ||1-------------1-1|1---*-----------|

G :--2-2-1-2-3-3-3-*||2-------------2-2|2---*-----------|

D :--3-3-2-3-3-3-3-*||3-------------3-3|3---*-----------|

A :--3-3-2-3-1-1-1- ||3-------------3-3|3---*-----------|

E :--1-1-0-1-*----- ||1-------------1-1|1---*-----------|

 

 

Return to my to my Everclear tabs page

The Tablature is Copyright its respective owners.

Sign Up For My Newsletter
Subscribe | Unsubscribe

Site Map | Disclaimer | Privacy Policy | Media Kit | Submissions/Corrections

Website © 2000-2014 mattsmusicpage.com. All rights reserved.

Legal & DMCA: Matt's Music Page has been providing lyrics and tabs in a legal way, paying royalties each year to a few organizations. Then, all lyrics and tabs were removed from the site. Now, there's a new owner to the site, which purchased it August 26, 2014, and he is in negotiation to obtain licensing from BMI at the moment. If you have a specific DMCA request -- please do not hesitate to contact me via the contact button on top. I will do my very best to keep this site fully legal.

Get our toolbar!