Your One-Stop Source For
Music Lyrics
Bass and Guitar Tabs
and More...
>Music Lyrics Bass and Guitar Tabs

 

The Tabs Are Below

Learn To Read Tab
Chords Handbook
Corrections & Additions
Get Official Tab
Everclear tabs @ 911Tabs

Song: Normal Like You

Artist: Everclear

Album: So Much for the Afterglow

Transcribed by: AlanTheWise (spfan607@yahoo.com)

 

Okay, this SHOULD be in standard tuning, but in the recording they have it

tuned about 1/4 flat. Why do they tune it like that? I dont know. Probably just

to piss off people like me who are trying to tab it out. Oh well, it's a cool

enough song to have to go through the troubles of figuring it out.

So if you play along to it, it is going to sound really weird unless you have

software that can increase the pitch of it by 1/4 of a step. You can find lots

of WinAmp plugins that do things like that on WinAmp.com but of course you have

to be using WinAmp to run them. Other than that, enjoy!

 

/ slide up

\ slide down

 

Intro

G:-------------------------|

D:-------------------------|

A:-------------------------|

E:------7-8-8------7-8-8---|

 

 

Pre-Chorus Riff (it's used right after the intro as well as the chorus)

G:----------------------------------------------------------------------|

D:----------------------------------------------------------------------|

A:----------------------------------------------------------------------|

E:---4/8-8-8-8-8-8-8-8-9-9-9-9-9-9-9-9\4-4-4-4-4-4-4-3-4-4-4-4-4-4-4-4--|

 

 

Verse

G:-----------------------------------------|

D:-----------------------------------------|

A:-----------------------------------------|

E:--8-8-8--8-7-8-9-9---9\4-4---4-4-3-4-4---|

 

 

Chorus (Tell me why...)

G:-------------------------------------------------------------|

D:-------------------------------------------------------------|

A:--6-6-6-6--6-6-4-4-4-4--4-4-4--------------------------------|

E:------------------------------4-4-4---4-4-3-4-4-4-4--4-4-4---|

 

 

Bridge (I get closer to the place inside...)

G:----------------------------------------------------------------|

D:----------------------------------------------------------------|

A:----------------------------------------------------------------|

E:--4-4-4---4-4-4-6-6-6-6---6-6-6-8-8-8-8---8-8-8-9-9-9-9-9-9-9-9-|

 

 

Interlude Thingie (You walk around oblivious to everyone...)

G:-------------------------------------------------------------------|

D:-------------------------------------------------------------------|

A:-------------------------------------------------------------------|

E:--8-8-8-8-8-8-8-8-9-9-9-9-9-9-9-9\4-4-4-4-4-4-4-4-4-4-4-4-4-4-4-4--|

 

Last Line

G:-------------------------|

D:-------------------------|

A:--------------------3----|

E:--4-4-3-4-4---4-4-3------|

 

 

The End!

Send Questions, Comments, Corrections, Requests, and Hate Mail to spfan607@yahoo.com

 

Please realize that if you request a song for me to tab out that the odds of

me tabbing it are not so high, consittering it takes a good deal of time.

But feel free to ask anyway! I will still try my best.

 

 

CHECK OUT MY OTHER TABS!!!!

 

 

Return to my to my Everclear bass tabs page

The Tablature is Copyright its respective owners.

Sign Up For My Newsletter
Subscribe | Unsubscribe

Site Map | Disclaimer | Privacy Policy | Media Kit | Submissions/Corrections

Website © 2000-2014 mattsmusicpage.com. All rights reserved.

Legal & DMCA: Matt's Music Page has been providing lyrics and tabs in a legal way, paying royalties each year to a few organizations. Then, all lyrics and tabs were removed from the site. Now, there's a new owner to the site, which purchased it August 26, 2014, and he is in negotiation to obtain licensing from BMI at the moment. If you have a specific DMCA request -- please do not hesitate to contact me via the contact button on top. I will do my very best to keep this site fully legal.

Get our toolbar!

 

BRAND NEW KEY OF C HOHNER MINI HARMONICA HARP KEYRING KEYCHAIN KEY RING CHAIN
$8.21
BRAND NEW KEY OF C HOHNER MINI HARMONICA HARP KEYRING KEYCHAIN KEY RING CHAIN picture


RISING SONS BAND *2X3 FRIDGE MAGNET* VOCALS GUITAR MANDOLIN DOBRO HARMONICA SONG
$3.99
RISING SONS BAND *2X3 FRIDGE MAGNET* VOCALS GUITAR MANDOLIN DOBRO HARMONICA SONG picture


Vtg Christmas Angel Baby Girl W Harmonica Boy W Book SET OF 2 W GOLD WINGS
$125.0
Vtg Christmas Angel Baby Girl W Harmonica Boy W Book SET OF 2 W GOLD WINGS  picture


Beautiful Hand Carved Jewelry Trinket Jewelry Box Harmonica Case Bone And Brass
$14.5
Beautiful Hand Carved Jewelry Trinket Jewelry Box Harmonica Case Bone And Brass picture


BRAND NEW* HOHNER BOB DYLAN SIGNATURE LIMITED EDITION HARMONICA COLLECTORS ITEM
$140.19
BRAND NEW* HOHNER BOB DYLAN SIGNATURE LIMITED EDITION HARMONICA COLLECTORS ITEM picture