Your One-Stop Source For
Music Lyrics
Bass and Guitar Tabs
and More...
Music Lyrics Bass and Guitar Tabs

 

The Tabs Are Below

Learn To Read Tab
Chords Handbook
Corrections & Additions
Get Official Tab
Eve 6 tabs @ 911Tabs

Author/Artist: Eve 6

Title: Rescue

Album: Horrorscope

Transcribed by: Matt Foster

Email: nexthendrix806@hotmail.com

 

Hey whats up. This song was hard to tab but it is

pretty much all right. Eve 6 is the greatest band and

it's kinda hard to find their songs besides their well

known ones. Well enjoy it, and email me any

comments or corrections. ( nexthendrix806@hotmail.com)

 

-5-----5---5---5---5---5---5---5--|5---5---5---7-7-5--------------------------

---5-5---5---5---5---5---5---5---5|--5---5---5--------------------------------

----------------------------------|-------------------------------------------

----------------------------------|-------------------------------------------

----------------------------------|-------------------------------------------

----------------------------------|-------------------------------------------

intro ^ play 2x on second time dont play this part ^

 

---------------------------------|--------------------------------------------

---------------------------------|--------------------------------------------

-----------7-7-10-10-------------|-----------7-7-10-10-7-7--------------------

---------------------------------|--------------------------------------------

-5-5-5-5-5-----------------------|-5-5-5-5-5----------------------------------

-3-3-3-3-3-----------------------|-3-3-3-3-3----------------------------------

Verse 1 ^ play 6x. Then play this 1x

 

------------------------------------------------------------------------------

------------------------------------------------------------------------------

-----------7-7-10-10----------------------------------------------------------

------------------------------------------------------------------------------

-5-5-5-5-5--------------------------------------------------------------------

-3-3-3-3-3--------------------------------------------------------------------

Then this ^ play 4x

 

----------------9-11-11-11-9-----------------------12-14----------------------

-11-11-11-11-11--------------11-11--14-14-14-14-14----------------------------

------------------------------------------------------------------------------

------------------------------------------------------------------------------

------------------------------------------------------------------------------

------------------------------------------------------------------------------

Verse ending ^ play 1x

 

------------------------------------------------------------------------------

------------------------------------------------------------------------------

-9-9--9-9-9-9--9-9------------------------------------------------------------

-9-9--9-9-9-9--9-9------------------------------------------------------------

-7-7--7-7-7-7--7-7------------------------------------------------------------

------------------------------------------------------------------------------

pre chorus riff ^ play 1x

 

-5-----5---5---5---5---5---5---7-7-5------------------------------------------

---5-5---5---5---5---5---5---5------------------------------------------------

------------------------------------------------------------------------------

------------------------------------------------------------------------------

------------------------------------------------------------------------------

------------------------------------------------------------------------------

chorus ^ play 4x

 

-----------------------|------------------------------------------------------

-----------------------|------------------------------------------------------

-----------7-7-10-10---|-------------7-7-10-10-7-7----------------------------

-----------------------|------------------------------------------------------

-5-5-5-5-5-------------|--5-5-5-5-5-------------------------------------------

-3-3-3-3-3-------------|--3-3-3-3-3-------------------------------------------

verse ^ play 4x then this 1x

 

---------|-15--12----|---------|-15--12----|----------------------------------

---------|--------14-|---------|--------14-|----------------------------------

---------|-----------|--9-9----|-----------|--9-9-9---------------------------

---------|-----------|--9-9----|-----------|--9-9-9---------------------------

---------|-----------|--7-7----|-----------|--7-7-7---------------------------

---------|-----------|---------|-----------|----------------------------------

verse 2^[_palm mute_] [_palm mute_] Play 3x (whole thing)

 

-----------------9-11-11-11-9-----------------------12-14---------------------

-11-11-11-11-11---------------11-11--14-14-14-14-14---------------------------

------------------------------------------------------------------------------

------------------------------------------------------------------------------

------------------------------------------------------------------------------

------------------------------------------------------------------------------

verse ending ^ play 1x

 

------------------------------------------------------------------------------

------------------------------------------------------------------------------

-9-9--9-9-9-9--9-9------------------------------------------------------------

-9-9--9-9-9-9--9-9------------------------------------------------------------

-7-7--7-7-7-7--7-7------------------------------------------------------------

------------------------------------------------------------------------------

pre chorus riff ^ play 1x

 

-5-----5---5---5---5---5---5---7-7-5------------------------------------------

---5-5---5---5---5---5---5---5------------------------------------------------

------------------------------------------------------------------------------

------------------------------------------------------------------------------

------------------------------------------------------------------------------

------------------------------------------------------------------------------

chorus ^ play 4x

 

------------------------------------------------------------------------------

-16-14-16-12-\----------------------------------------------------------------

------------------------------------------------------------------------------

------------------------------------------------------------------------------

------------------------------------------------------------------------------

------------------------------------------------------------------------------

then play this little "solo" ^ 1x

 

------------------------------------------------------------------------------

------------------------------------------------------------------------------

-7-7-7-7-7-7-7-7-----------------9-9-9-9-9-9-9-9---------11-11-11-11----------

-7-7-7-7-7-7-7-7-7-7-7-7-7-7-7-7-9-9-9-9-9-9-9-9-9-9-9-9-11-11-11-11----------

-5-5-5-5-5-5-5-5-7-7-7-7-7-7-7-7-7-7-7-7-7-7-7-7-9-9-9-9--9--9--9--9----------

-----------------5-5-5-5-5-5-5-5-----------------7-7-7-7----------------------

 

 

------------------------------------------------------------------------------

------------------------------------------------------------------------------

-7-7-7-7-7-7-7-7-------------------------------9-9--9-9-9-9--9-9--------------

-7-7-7-7-7-7-7-7-7-7-7-7-7-7-7-7-9-9-9-9-9-9-9-9-9--9-9-9-9--9-9--------------

-5-5-5-5-5-5-5-5-7-7-7-7-7-7-7-7-9-9-9-9-9-9-9-7-7--7-7-7-7--7-7--------------

-----------------5-5-5-5-5-5-5-5-7-7-7-7-7-7-7--------------------------------

then play this riff ^ 1x

 

-5-----5---5---5---5---5---5---7-7-5------------------------------------------

---5-5---5---5---5---5---5---5------------------------------------------------

------------------------------------------------------------------------------

------------------------------------------------------------------------------

------------------------------------------------------------------------------

------------------------------------------------------------------------------

chorus ^ play 4x

 

------------------------------------------------------------------------------

------------------------------------------------------------------------------

-7-7-7-7-7-7-7-7-----------------9-9-9-9-9-9-9-9---------11-11-11-11----------

-7-7-7-7-7-7-7-7-7-7-7-7-7-7-7-7-9-9-9-9-9-9-9-9-9-9-9-9-11-11-11-11----------

-5-5-5-5-5-5-5-5-7-7-7-7-7-7-7-7-7-7-7-7-7-7-7-7-9-9-9-9--9--9--9--9----------

-----------------5-5-5-5-5-5-5-5-----------------7-7-7-7----------------------

ending riff ^ play 2x

 

 

 

Return to my to my Eve 6 bass tabs page

The Tablature is Copyright its respective owners.

Sign Up For My Newsletter
Subscribe | Unsubscribe

Site Map | Disclaimer | Privacy Policy | Media Kit | Submissions/Corrections

Website © 2000-2014 mattsmusicpage.com. All rights reserved.

Legal & DMCA: Matt's Music Page has been providing lyrics and tabs in a legal way, paying royalties each year to a few organizations. Then, all lyrics and tabs were removed from the site. Now, there's a new owner to the site, which purchased it August 26, 2014, and he is in negotiation to obtain licensing from BMI at the moment. If you have a specific DMCA request -- please do not hesitate to contact me via the contact button on top. I will do my very best to keep this site fully legal.

Get our toolbar!

 

VINTAGE SORRENTO MUSIC JEWELRY BOX
$45.0
VINTAGE SORRENTO MUSIC JEWELRY BOX picture


VINTAGE LACQUERED MUSIC BOX JAPAN
$25.99
VINTAGE LACQUERED MUSIC BOX JAPAN picture


Vintage Kehlsteinhaus Bavaria Germany Colorscope Cow Bell View Master Music Box
$8.99
Vintage Kehlsteinhaus Bavaria Germany Colorscope Cow Bell View Master Music Box picture


VINTAGE SCHMIDT Signed Collectible Musical Turning Clown
$9.99
VINTAGE  SCHMIDT Signed Collectible Musical Turning Clown picture


Vintage - Linen - Postcard - Stage - Radio City Music Hall - New York City
$3.75
Vintage - Linen - Postcard - Stage - Radio City Music Hall - New York City   picture