Your One-Stop Source For
Music Lyrics
Bass and Guitar Tabs
and More...
>Music Lyrics Bass and Guitar Tabs

 

The Tabs Are Below

Learn To Read Tab
Chords Handbook
Corrections & Additions
Get Official Tab
Eve 6 tabs @ 911Tabs

 

Eve 6

Promise

 

#----------------------------------PLEASE NOTE--------------------------------#

#This file is the author's own work and represents their interpretation of the#

#song. You may only use this file for private study, scholarship, or research.#

#-----------------------------------------------------------------------------#

#-- File created with Instab - http://www.pconline.com/~smcarey/instab.html --#

#-----------------------------------------------------------------------------#

 

Author/Artist: Eve 6

Title: Promise

Album: Horrorscope

Transcribed by: Michael Christie

Email: christie@auracom.com

Intro/Verse

-----------------------------|-------------------------|

-----------------------------|-------------------------|

--4--2--4--2--4--2--4--2-----|-4--2--4--2--4--2--4--2--|

--2--2--2--0--0--0--0--0-----|-2--2--2--0--0--0--0--0--|

-----------------------------|-------------------------|

-----------------------------|-------------------------|

PM..................................................|

 

Fill 1

--------------------------|-------------------------|

--------------------------|-------------------0-----|

--4--2--4--2--4--2--4--2--|--4--2--4--2---------2---|

--2--2--2--0--0--0--0--0--|--2--2--2--0---4---------|

--------------------------|-------------------------|

--------------------------|-------------------------|

PM.................................|

 

 

Bridge

--------------------------0---|----------3--3--3-----3--3--3--3--|

--------------------------0---|----------3--3--3-----3--3--3--3--|

---4--2--4--2--4--2--4----1---|----------0--0--0-----0--0--0--0--|

---x--x--x--x--0--0--0----2---|----------0--0--0-----0--0--0--0--|

---4--4--4--4-------------2---|----------x--x--x-----x--x--x--x--|

--------------------------0---|----------3--3--3-----3--3--3--3--|

Distortion On

Chorus

---------------------------------------------------------------------------

---------------------------------------------------------------------------

-----------------7--7--x-x-x-x---------------------------------------------

--7--7--x-x-x-x--7--7--x-x-x-x--2--2--x-x-x-x---2--2--x-x-x-x--------------

--7--7--x-x-x-x--5--5--x-x-x-x--2--2--x-x-x-x---2--2--x-x-x-x--------------

--5--5--x-x-x-x-----------------0--0--x-x-x-x---0--0--x-x-x-x--------------

 

Fill 2

----------------------------------------------------------------------------

----------------------------------------------------------------------------

------------------7--7--x-x-x-x---------------------------------------------

---7--7--x-x-x-x--7--7--x-x-x-x--2--2--x-x-x-x--4--4--4-/-------------------

---7--7--x-x-x-x--5--5--x-x-x-x--2--2--x-x-x-x--4--4--4-/-------------------

---5--5--x-x-x-x-----------------0--0--x-x-x-x--2--2--2-/-------------------

 

Fill 3

-------------------------------0-------------------------------------------

-------------------------------0-----------------0-------------------------

-----------------7--7--7--7----4-------------------2-----------------------

--7--7--7----7---7--7--7--7----2--------------4----------------------------

--7--7--7----7---5--5--5--5----2-------------------------------------------

--5--5--5----5-----------------0-------------------------------------------

 

Interlude

-----------5----------5---------------5---------------5---------------------

-------5-----------5-----5-------5---------------5---------5----------------

----------------------------------------------------------------------------

---4-----------0-------------2-------------0--------------------------------

----------------------------------------------------------------------------

----------------------------------------------------------------------------

Repeat

Fill 4

--------------5----------------------5----|--------------------------------|

--------5----------5-------------5-------5|--------------------------------|

------------------------------------------|--------------------------------|

---4----------------------0---------------|--------------------------------|

------------------------------------------|-0-0-0-0-0-0-0-0-0-0-0-0-0-0-0-0|

------------------------------------------|--------------------------------|

PM..............................|

 

---------------------------------|

---------------------------------|

-9-9-9-9-9-9-9-9-9-9-9-9-9-9-9-9-|

-9-9-9-9-9-9-9-9-9-9-9-9-9-9-9-9-|

-7-7-7-7-7-7-7-7-7-7-7-7-7-7-7-7-|

---------------------------------|

 

Song Order

 

Intro/Verse X4

Fill 1 X1

Intro/Verse X1

Bridge X1 (Starts at "Red as a newborn")

Chorus X2

Fill 2 X1

Fill 3 X1

Interlude X4

Fill 4 X1

Chorus X4

 

And thats pretty much it. This is my first tab. Parts were taken from Guitar

One magazine. And most of the parts are labeled wrong, but the tab is right.

 

There are also 2 more guitars in the song, playing minor riffs... if you want

these tabbed, contact me, and I'll tab them out for you.

 

Return to my to my Eve 6 tabs page

The Tablature is Copyright its respective owners.

Sign Up For My Newsletter
Subscribe | Unsubscribe

Site Map | Disclaimer | Privacy Policy | Media Kit | Submissions/Corrections

Website © 2000-2014 mattsmusicpage.com. All rights reserved.

Legal & DMCA: Matt's Music Page has been providing lyrics and tabs in a legal way, paying royalties each year to a few organizations. Then, all lyrics and tabs were removed from the site. Now, there's a new owner to the site, which purchased it August 26, 2014, and he is in negotiation to obtain licensing from BMI at the moment. If you have a specific DMCA request -- please do not hesitate to contact me via the contact button on top. I will do my very best to keep this site fully legal.

Get our toolbar!

 

Rare photo THE SIMPSONS Homer guitar ROLLING STONES Keith Richards Mick Jagger
$49.95
Rare photo THE SIMPSONS Homer guitar ROLLING STONES Keith Richards Mick Jagger  picture


1" Mick Jagger Rolling Stones Rock And Roll Cool Glass Metal Sewing Button JE54
$4.45
1


Assi Della Canzone 12 pics 4 pages from rare book Rolling Stones Paul Anka Ray C
$3.49
Assi Della Canzone 12 pics 4 pages from rare book Rolling Stones Paul Anka Ray C picture


Budweiser 1994 Rolling Stones Voodoo Lounge Tour neon insert ONLY
$140.0
Budweiser 1994 Rolling Stones Voodoo Lounge Tour neon insert ONLY picture


BILL WYMAN The Rolling Stones SIGNED A Life On The Road 1998 BOOK
$99.95
BILL WYMAN The Rolling Stones SIGNED A Life On The Road 1998 BOOK picture