Your One-Stop Source For
Music Lyrics
Bass and Guitar Tabs
and More...
Music Lyrics Bass and Guitar Tabs

 

The Tabs Are Below

Learn To Read Tab
Chords Handbook
Corrections & Additions
Get Official Tab
Eve 6 tabs @ 911Tabs

Eve 6 - On The Roof Again

Drop D Tuning

Low To High - D A D G B E

 

Intro/Verses:

|---------------------------------------------------------------------|

|---------------------------------------------------------------------|

|--------------------7-x-x-7-7-------------7-x-x----------------------|

|----7-7-------------7-x-x-7-7-------------7-x-x----------------------|

|----7-7-------------5-x-x-5-5-------------5-x-x----------------------|

|----7-7-(5)-(5)-(5)-----------(5)-(5)-(5)----------------------------|

 

Verse Changes to This:

|---------------------------------------------------------------------|

|---------------------------------------------------------------------|

|---------------------------------------------------------------------|

|--7-7-------------5-x-x-0-0-------------5-x-x------------------------|

|--7-7-------------5-x-x-0-0-------------5-x-x------------------------|

|--7-7-(5)-(5)-(5)-5-x-x-0-0-(5)-(5)-(5)-5-x-x------------------------|

 

Pre-Chorus:

|---------------------------------------------------------------------|

|---------------------------------------------------------------------|

|------7-------7-------7---5-5----------------------------------------|

|------7-------7-------7---5-5----------------------------------------|

|------5-------5-------5---3-3----------------------------------------|

|--0-0---0-0-0---0-0-0---0--------------------------------------------|

 

Chorus:

|---------------------------------------------------------------------|

|--10----5-----7-----3------------------------------------------------|

|--9-----4-----6-----2------------------------------------------------|

|--7-----2-----4-----0------------------------------------------------|

|--7-----2-----4-----0------------------------------------------------|

|--7-----2-----4-----0------------------------------------------------|

 

tabbed by zipztabs.com

Enjoy!

 

Return to my to my Eve 6 bass tabs page

The Tablature is Copyright its respective owners.

Sign Up For My Newsletter
Subscribe | Unsubscribe

Site Map | Disclaimer | Privacy Policy | Media Kit | Submissions/Corrections

Website © 2000-2014 mattsmusicpage.com. All rights reserved.

Legal & DMCA: Matt's Music Page has been providing lyrics and tabs in a legal way, paying royalties each year to a few organizations. Then, all lyrics and tabs were removed from the site. Now, there's a new owner to the site, which purchased it August 26, 2014, and he is in negotiation to obtain licensing from BMI at the moment. If you have a specific DMCA request -- please do not hesitate to contact me via the contact button on top. I will do my very best to keep this site fully legal.

Get our toolbar!