Your One-Stop Source For
Music Lyrics
Bass and Guitar Tabs
and More...
Music Lyrics Bass and Guitar Tabs

 

The Tabs Are Below

Learn To Read Tab
Chords Handbook
Corrections & Additions
Get Official Tab
Eve 6 tabs @ 911Tabs

 

Eve 6

Here's To the Night

 

 

#----------------------------------PLEASE NOTE--------------------------------#

#This file is the author's own work and represents their interpretation of the#

#song. You may only use this file for private study, scholarship, or research.#

#-----------------------------------------------------------------------------#

#-- File created with Instab - http://www.pconline.com/~smcarey/instab.html --#

#-----------------------------------------------------------------------------#

 

Eve 6

Heres To The Night

Mattleone@localbar.com

 

I was tempted to tab this in drop D but I didnt, so some of the D's might neem like

they should be lower than they are.

 

Short Intro: May not even be a guitar

------------------------------------------------------------------------------

----15----------------15------------------------------------------------------

-12----12----------12----12---------------------------------------------------

----------12----------------12------------------------------------------------

------------------------------------------------------------------------------

------------------------------------------------------------------------------

 

Verse: Play this palm muted

------------------------------------------------------------------------------

------------------------------------------------------------------------------

------------------------------------------------------------------------------

---5---5---5---5---5---5---5---5---5---5---5---5-----7-------7----------------

-----5-------5-------5-------5---3---5---3---5---5-5---5-5-5---5--------------

-3-------3-------3-------3----------------------------------------------------

 

Prechorus: Guitar 2

------------------------------------------------------------------------------

------------------------------------------------1-------1-------1-------1-----

-----0-2----------0-2----------0-------0------0---0---0---0---0---0---0---0---

---0------------0------------0---0-0-0---0------------------------------------

--------------------------------------------3-------3-------3-------3---------

-3------------3------------0--------------------------------------------------

 

Prechorus: Guitar 1

-0------------3---------------------------------------------------------------

-0------------3---------------------------------------------------------------

-0------------4------------0-------7--------5---------------------------------

-2------------5------------2-------7--------5---------------------------------

-2------------5------------2-------5--------3---------------------------------

-0------------3------------0--------------------------------------------------

 

Chorus: Guitar 1

-------------------------------------------------------------------------------

-------------------------------------------------------------------------------

---------------------------7---------------------------------------------------

-5----------------2--------7---------------------------------------------------

-5----------------2--------5---------------------------------------------------

-3----------------0------------------------------------------------------------

 

Chorus: Guitar 2

---5--5-5-5-5-5-3----3--------------------------------------------------------

---3--3-3-3-3-3-3------5-3----------------------------------------------------

------------------------------------------------------------------------------

------------------------------------------------------------------------------

------------------------------------------------------------------------------

------------------------------------------------------------------------------

 

This is the last part of the chorus: Guitar 1

-------------------------------------------------------------------------------

-------------------------------------------------------------------------------

-------------------9--------7-------5------------------------------------------

-5-----------------9--------7-------5------------------------------------------

-5-----------------7--------5-------3------------------------------------------

-3-----------------------------------------------------------------------------

 

Guitar 2: Last part of the chorus

-5--5-5-5-5-5-5-5----3------------3--2--3--2--3--2--3--5----------------------

-----------------------5-3--------3--3--3--3--3--3--3--3----------------------

------------------------------------------------------------------------------

------------------------------------------------------------------------------

------------------------------------------------------------------------------

------------------------------------------------------------------------------

 

Bridge: Guitar 2

------------------------------------------------------------------------------

-------3---------------3------------------------------------------------------

-----3----3----------3----3---------------------------------------------------

---1--------3------3--------3-------------------------------------------------

-1----------------------------------------------------------------------------

-----------------1------------------------------------------------------------

 

Bridge: Guitar 1

------------------------------------------------------------------------------

-3----------------------------------------------------------------------------

-3---------------2------------------------------------------------------------

-1---------------3------------------------------------------------------------

-1---------------3------------------------------------------------------------

-----------------1------------------------------------------------------------

 

Its a little tricky to hear the chorus rythms in this song due to the strings

playing in the background. But I think those are right.

 

 

Return to my to my Eve 6 tabs page

The Tablature is Copyright its respective owners.

Sign Up For My Newsletter
Subscribe | Unsubscribe

Site Map | Disclaimer | Privacy Policy | Media Kit | Submissions/Corrections

Website © 2000-2014 mattsmusicpage.com. All rights reserved.

Get our toolbar!