Your One-Stop Source For
Music Lyrics
Bass and Guitar Tabs
and More...
>Music Lyrics Bass and Guitar Tabs

 

The Tabs Are Below

Learn To Read Tab
Chords Handbook
Corrections & Additions
Get Official Tab
Eve 6 tabs @ 911Tabs

album: its all in your head

title: Still here waiting

 

intro/pre-verse

G----------|----------|----------|-------------|

D----------|----------|----------|-------------|

A--------5-|--------5-|--------5-|-------------|

E-0-03-05--|-0-03-05--|-0-03-05--|-0-05-055-33-|

 

verse

G-------------------------------------|

D-------------------------------------|

A-------------------55555555----------|

E-00000000-55555555----------55555555-|

 

pre-chorus

G------------------------------------------------------------

D------------------------------------------------------------

A-------55555555----------------------------55555555---------

E-0-05-5---------55555555-00000000-55555555----------55555555

 

G--55-55-55----

D--------------

A------------3/ (really fast!)

E--------------

 

Chorus

G------------------

D------------------

A---------5-55-----

E-0-005-55----5-55-

 

 

Return to my to my Eve 6 bass tabs page

The Tablature is Copyright its respective owners.

Sign Up For My Newsletter
Subscribe | Unsubscribe

Site Map | Disclaimer | Privacy Policy | Media Kit | Submissions/Corrections

Website © 2000-2014 mattsmusicpage.com. All rights reserved.

Legal & DMCA: Matt's Music Page has been providing lyrics and tabs in a legal way, paying royalties each year to a few organizations. Then, all lyrics and tabs were removed from the site. Now, there's a new owner to the site, which purchased it August 26, 2014, and he is in negotiation to obtain licensing from BMI at the moment. If you have a specific DMCA request -- please do not hesitate to contact me via the contact button on top. I will do my very best to keep this site fully legal.

Get our toolbar!

 

SET 4 BESWICK PIG PROMENADE FIGURES VIOLINIST; GUITAR; BASS DRUMMER; CONDUCTOR
$58.5
SET 4 BESWICK PIG PROMENADE FIGURES VIOLINIST; GUITAR; BASS DRUMMER; CONDUCTOR picture


Miniature Guitar 9" Acoustic
$12.0
Miniature Guitar 9


1985 Close Up of Elizabeth Cotten with Guitar Original News Service Photo
$19.99
1985 Close Up of Elizabeth Cotten with Guitar Original News Service Photo picture


WILLIE NELSON AUTOGRAPH (2005) GOLF EVENT POSTER Country Music Album GUITAR STAR
$100.0
WILLIE NELSON AUTOGRAPH (2005) GOLF EVENT POSTER Country Music Album GUITAR STAR picture


Comic Book Artist R CRUMB POSTCARD Beautiful Music Violin Guitar Grandparents
$4.99
Comic Book Artist R CRUMB POSTCARD Beautiful Music Violin Guitar Grandparents picture