Your One-Stop Source For
Music Lyrics
Bass and Guitar Tabs
and More...
Music Lyrics Bass and Guitar Tabs

 

The Tabs Are Below

Learn To Read Tab
Chords Handbook
Corrections & Additions
Get Official Tab
Eve 6 tabs @ 911Tabs

Song: On the Roof Again

Artist: Eve6

Album: Horrorscope

Tabbed by: Alan the Wise (spfan607@yahoo.com)

 

It sounds like the bass has slight distortion during this song. Try

playing it with the gain all the way up and it sounds a lot like the

real song. Plus, natural distortion is just plain cool.

 

This song is in DROPPED-D TUNING. Come to think of it, this would

probably be a lot easier to play it with all strings dropped a step,

but im not in the mood to rewrite the whole tab. You can go agead

and do that if you want to play it that way.

 

Riff 1

G------------|

D------------|

A------------|

D-5---5-7-7--|

 

Riff 2

G-----------------------|

D-----------------------|

A-----------------------|

D--5---0-0---0-2-0-7-7--|

 

Riff 3

G------------------------------|

D-------------------------5-5--|

A------------------------------|

D-0-0-0-0-0-0-0-0-0-0-0-0------|

 

Chorus

G---------------------------------|

D---------------------------------|

A---------------------------------|

D-7-7-7-7-2-2-2-2-4-4-4-4-0-0-0-0-|

 

Chorus Outro (Gonna' jump...)

G------------------|

D------------------|

A------------------|

D--7---7-2---2-0---|

 

Riff 4

G-----------------------------------|

D-----------------------------------|

A-------------5---------------------|

D--(2/)7-7---5----0-0----0-2-0------|

/

This note is only played when comming strait out of the

Chorus outro.

 

Riff 5

G---------------------------------------|

D---------------------------------------|

A---------------------------------------|

D-7-7-7-5-5-7-7-5-0-0-0-7-0-0-0-2-------|

 

Riff 6

G---------------------------------------|

D---------------------------------------|

A-----------------5---------------------|

D-7-7-7-5-5-7-7-5---0---0-0---0-0---0-0-|

 

Riff 7

G---------------------------------------|

D---------------------------------------|

A---------------------------------------|

D-7-7-7-7-2-2-2-2-7-7-7-7-0-0-0-0-------|

 

Outro

 

G--------------|

G--------------|

G--------------|

G-7---2---0----|

 

Order of Song

 

Intro (no bass)

Riff 1

Riff 2 (x3)

Riff 3

Chorus (x3)

Chorus Outro

Riff 4 (x2)

Riff 2 (x3)

Riff 3

Chorus (x3)

Chorus Outro

Riff 4 (x6)

Riff 5 (x3)

Riff 6

Chorus (x4)

Riff 7 (x3)

Outro (x2)

 

This sounds perfect to my ears. The only problems might be with the

number of times you're supposed to play the riffs, but that's not too

big of a problem.

 

If you have any corrections, comments, questions, or the bass

intro/solo to N.I.B. by Primus+Ozzy Osbourne, email me at

spfan607@yahoo.com. Viva La Resistance!

 

Please realize that if you request a song for me to tab out that the odds of

me tabbing it are not so high, consittering it takes a good deal of time.

But feel free to ask anyway! I'll try my best.

 

 

Return to my to my Eve 6 bass tabs page

The Tablature is Copyright its respective owners.

Sign Up For My Newsletter
Subscribe | Unsubscribe

Site Map | Disclaimer | Privacy Policy | Media Kit | Submissions/Corrections

Website © 2000-2014 mattsmusicpage.com. All rights reserved.

Legal & DMCA: Matt's Music Page has been providing lyrics and tabs in a legal way, paying royalties each year to a few organizations. Then, all lyrics and tabs were removed from the site. Now, there's a new owner to the site, which purchased it August 26, 2014, and he is in negotiation to obtain licensing from BMI at the moment. If you have a specific DMCA request -- please do not hesitate to contact me via the contact button on top. I will do my very best to keep this site fully legal.

Get our toolbar!

 

VINTAGE SORRENTO MUSIC JEWELRY BOX
$45.0
VINTAGE SORRENTO MUSIC JEWELRY BOX picture


VINTAGE LACQUERED MUSIC BOX JAPAN
$25.99
VINTAGE LACQUERED MUSIC BOX JAPAN picture


Vintage Kehlsteinhaus Bavaria Germany Colorscope Cow Bell View Master Music Box
$8.99
Vintage Kehlsteinhaus Bavaria Germany Colorscope Cow Bell View Master Music Box picture


VINTAGE SCHMIDT Signed Collectible Musical Turning Clown
$9.99
VINTAGE  SCHMIDT Signed Collectible Musical Turning Clown picture


Vintage - Linen - Postcard - Stage - Radio City Music Hall - New York City
$3.75
Vintage - Linen - Postcard - Stage - Radio City Music Hall - New York City   picture