Your One-Stop Source For
Music Lyrics
Bass and Guitar Tabs
and More...
Music Lyrics Bass and Guitar Tabs

 

The Tabs Are Below

Learn To Read Tab
Chords Handbook
Corrections & Additions
Get Official Tab
Eve 6 tabs @ 911Tabs

IMPORTANT : This is an awsome song to play, and is quite easy. From beginners to

advanced bassists, this song is fun to play, and still requires skill to play. But

before starting to play the song, here are some important notices:

 

- Please notice that the drums start off the song, and that the bass kicks in about 8

seconds and 70 miliseconds after the song starts.

 

- Also notice that there is an extra part ( or riff ) right after you play the

chorus. It is important to see that this part is played only after the first chorus,

and never again in the entire song.

( See bottom of tab to view how many times each part is played.)

 

-The tuning does remain standard. ( E, A, D, G )

 

MAIN RIFF/ VERSES

 

G------------------------------------------------------------------------I

D-------------------------------------------------------------------------I

A--22222222----------------------55555555---------------------I

E--------------------33333333----------------------55555555---I

 

CHORUS “The time is right, but I feel all wrong...”

 

G---------------------------------------------------------------------I

D---------------------------------------------------------------------I

A---2------------2------------------5-------------5----------------I

E--------------------3---------------------------------5-------------I

 

“It wastes away, and now youre gone...”

CHORUS

 

G----------------------------------------------------------------------I

D----------------------------------------------------------------------I

A---2------------2------------------5--------------------------------I

E--------------------3---------------------------------5--------------I

 

EXTRA PART

 

G----------------------------------------------------------------------

D----------------------------------------------------------------------

A---0--0--------------------------------------------------------------

E----------------------8--10----10----------------------------------

 

Order of Song:

MAIN RIFF : (X 12)

CHORUS: (X 3)

EXTRA PART: (X 6)

MAIN RIFF : (X 2)

CHORUS: (X 3)

MAIN RIFF :

 

 

Return to my to my Eve 6 bass tabs page

The Tablature is Copyright its respective owners.

Sign Up For My Newsletter
Subscribe | Unsubscribe

Site Map | Disclaimer | Privacy Policy | Media Kit | Submissions/Corrections

Website © 2000-2014 mattsmusicpage.com. All rights reserved.

Legal & DMCA: Matt's Music Page has been providing lyrics and tabs in a legal way, paying royalties each year to a few organizations. Then, all lyrics and tabs were removed from the site. Now, there's a new owner to the site, which purchased it August 26, 2014, and he is in negotiation to obtain licensing from BMI at the moment. If you have a specific DMCA request -- please do not hesitate to contact me via the contact button on top. I will do my very best to keep this site fully legal.

Get our toolbar!

 

VINTAGE SORRENTO MUSIC JEWELRY BOX
$45.0
VINTAGE SORRENTO MUSIC JEWELRY BOX picture


VINTAGE LACQUERED MUSIC BOX JAPAN
$25.99
VINTAGE LACQUERED MUSIC BOX JAPAN picture


Vintage Kehlsteinhaus Bavaria Germany Colorscope Cow Bell View Master Music Box
$8.99
Vintage Kehlsteinhaus Bavaria Germany Colorscope Cow Bell View Master Music Box picture


VINTAGE SCHMIDT Signed Collectible Musical Turning Clown
$9.99
VINTAGE  SCHMIDT Signed Collectible Musical Turning Clown picture


Vintage - Linen - Postcard - Stage - Radio City Music Hall - New York City
$3.75
Vintage - Linen - Postcard - Stage - Radio City Music Hall - New York City   picture