Your One-Stop Source For
Music Lyrics
Bass and Guitar Tabs
and More...
Music Lyrics Bass and Guitar Tabs

 

The Tabs Are Below

Learn To Read Tab
Chords Handbook
Corrections & Additions
Get Official Tab
Eve 6 tabs @ 911Tabs

Eve 6

Here's to the Night

 

Transcribed By: Ryan Huntsman (IbanezBassMX)

Email: Ryan82184@aol.com

 

Tunning- tune down one whole step- low to high- D,G,C,F

 

the bass player uses a pick for this song but its up to you wheather

you want to use one or not.

 

Intro

F------------------------------------------------------------------

C------------------------------------------------------------------

G-0-0-0-0-0-0-0-0-----------------5-5-5-5-5-5-5-5------------------

D-----------------2-2-2-2-2-2-2-2-----------------0-0-0-0-0-0-0-0--

 

Verse (0:19)

F------------------------------------------------------------------

C------------------------------------------------------------------

G-0-0-0-0-0-0-0-0-----------------5-5-5-5-5-5-5-5------------------

D-----------------2-2-2-2-2-2-2-2-----------------0-0-0-0-0-0-0-0--

 

F-----------------------------------------------------------------------------------

C-----------------------------------------------------------------------------------

G-0-0-0-0-0-0-0-0-----------------5-5-5-5-5-5-5-5-----------------------------------

D-----------------2-2-2-2-2-2-2-2-----------------0-0-0-0-0-0-0-0--0-0-0-0-0-0-0-2--

 

F------------------------------------------------------------------

C------------------------------------------------------------------

G-0-0-0-0-0-0-0-0-----------------5-5-5-5-5-5-5-5------------------

D-----------------2-2-2-2-2-2-2-2-----------------0-0-0-0-0-0-0-0--

 

1st and 2nd Pre-Choruses (0:51, 1:46)

F----------------------------------------------------------

C----------------------------------------------------------

G------------------0-0-0-0-0-0-0----------0-7-7-7-7--5~~~--

D-2-2-2-2-2-2-2-0----------------0--2-2-2------------------

 

1st and 2nd Choruses (1:04, 1:58)

F------------------------------------

C------------------------------------ X2

G-0-0-0--0------------------5-5-5-5--

D----------0-0-0-0--2-2-2-2----------

 

F-----------------------------------------------------------------------

C-----------------------------------------------------------------------

G-0-0-0--0----------------------------5-5-5-5-5-5-5-0--5-5-5-5-5-5-5-5--

D----------0-0-0-0--2-2-2-2--0-0-0-0------------------------------------

 

2nd Verse (1:23)

F------------------------------------------------------------------------------------

C------------------------------------------------------------------------------------

G-0-0-0-0-0-0-0-0------------------5-5-5-5-5-5-5-5-----------------------------------

D-----------------2-2-2-2-2-2-2-2------------------0-0-0-0-0-0-0-0-0-0-0-0-0-0-0-2/--

 

F------------------------------------------------------------------------------------

C------------------------------------------------------------------------------------

G-0-0-0-0-0-0-0-0-----------------5-5-5-5-5-5-5-5---------------------------------0--

D-----------------2-2-2-2-2-2-2-2-----------------0-0-0-0-0-0-0-0--0-0-0-0-0-0-0-----

 

Bridge (2:18)

F------------------------------------------------------------------------------------

C------------------------------------------------------------------------------------

G----------------------------------------------------3-2-----------------------------

D-1-1-1-1-1-1-1-1-3-3-3-3-3-3-3-3--1-1-1-1-3-3-3-3-3-----3--1-1-1-1-3-3-3-3-3-3-3-3--

 

Interlude (2:32)

F------------------------------------------------------------------

C------------------------------------------------------------------ X2

G-0-0-0-0-0-0-0-0-----------------5-5-5-5-5-5-5-5------------------

D-----------------2-2-2-2-2-2-2-2-----------------0-0-0-0-0-0-0-0--

 

3rd Pre-Chorus (2:52)

F------------------------------------------------------------

C------------------------------------------------------------

G------------------0-0-0-0-0-0-0----------------------5~~~~--

D-2-2-2-2-2-2-2-0----------------0--2-2-2-2-0-0-0-0----------

 

3rd Chorus (3:09)

F------------------------------------

C------------------------------------ X3

G-0-0-0--0------------------5-5-5-5--

D----------0-0-0-0--2-2-2-2----------

 

F---------------------------------------

C---------------------------------------

G-0-0-0--0------------------------------

D-----------0-0-0-0--2-2-2--2--0-0-0-0--

 

F--------

C-------- let it ring through Outro

G-5~~~~--

D--------

 

Thats it, this song is pretty easy so have fun. GW

This tab is 100% correct.

Please rate this tab, Thanks.

 

 

Return to my to my Eve 6 bass tabs page

The Tablature is Copyright its respective owners.

Sign Up For My Newsletter
Subscribe | Unsubscribe

Site Map | Disclaimer | Privacy Policy | Media Kit | Submissions/Corrections

Website © 2000-2014 mattsmusicpage.com. All rights reserved.

Legal & DMCA: Matt's Music Page has been providing lyrics and tabs in a legal way, paying royalties each year to a few organizations. Then, all lyrics and tabs were removed from the site. Now, there's a new owner to the site, which purchased it August 26, 2014, and he is in negotiation to obtain licensing from BMI at the moment. If you have a specific DMCA request -- please do not hesitate to contact me via the contact button on top. I will do my very best to keep this site fully legal.