Your One-Stop Source For
Music Lyrics
Bass and Guitar Tabs
and More...
Music Lyrics Bass and Guitar Tabs

 

The Evanescence Bass Tabs Are Below

Learn To Read Tab
Chords Handbook
Corrections & Additions
Get Official Tab
Evanescence tabs @ 911Tabs

Band- Evanescence

Song- My Last Breath

 

 

Tuning

Drop-C# ?

G

D

A

C#

 

For those of you who are like me and like to play the guitar solos as well Here you go

 

G|---2h4p1--| G|--------|

D|----------| OR D|--7h9p6-| h=Hammer on

A|----------| A|--------| p=Pull off

C#|---------| C#|-------|

 

FX 0:00

Intro/Chrous 0:10

Into Verse (Follow Guitar)

 

G|---------------------------------------------| G|----------|

D|---------------------------------------------| D|----------|

A|---------------------------------------------| A|----------|

C#|--5--5---5----01---1-1----1----03---333-333-| C#|--3--5*--|

 

Verse 1

 

G|---------------------------|

D|---------------------------|

A|---------------------------|

C#|----5*-----5*-----5*------|

 

Bass Fill

 

G|--------------------9--------------------------------|

D|---4*--------------------7/8-------------------------|

A|-----------5--7-----9-------------5--7--9------------|

C#|----------------------------------------------------|

 

Verse 2 Bridge

 

G|--------------------------| G|-----------------------------|

D|--------------------------| D|-----------------------------|

A|--------------------------| A|-----------------------------|

C#|----5----3-5---3--5------| C#|---0000000000--3--1---0--1--|

 

Alernate Chrous (To play along with the lead Guitar)

 

G|-----------------------------------------------------|

D|------7h9p6------------------------------------------|

A|---------------9--9-----45-5--5--5-----47--7--7--7---|

C#|----------------------------------------------------|

Return to my Evanescence Bass Tabs page

The Tablature is Copyright its respective owners.

Sign Up For My Newsletter
Subscribe | Unsubscribe

Site Map | Disclaimer | Privacy Policy | Media Kit | Submissions/Corrections

Website © 2000-2014 mattsmusicpage.com. All rights reserved.

Legal & DMCA: Matt's Music Page has been providing lyrics and tabs in a legal way, paying royalties each year to a few organizations. Then, all lyrics and tabs were removed from the site. Now, there's a new owner to the site, which purchased it August 26, 2014, and he is in negotiation to obtain licensing from BMI at the moment. If you have a specific DMCA request -- please do not hesitate to contact me via the contact button on top. I will do my very best to keep this site fully legal.

Get our toolbar!