Your One-Stop Source For
Music Lyrics
Bass and Guitar Tabs
and More...
Music Lyrics Bass and Guitar Tabs

 

The Tabs Are Below

Learn To Read Tab
Chords Handbook
Corrections & Additions
Get Official Tab
Evanescence tabs @ 911Tabs

Author/Artist: Evanescence

Title: Bring Me To Life

Album: Daredevil Soundtrack/Fallen

Transcribed by: Ian?!(Iggy)

Email: evanescence21@hotmail.com

 

this is a great song featuring Paul McCoy of 12 stones

and fairly simple to play. i didn't bother tabbing out the

piano part so just check the other guy's tab and see

if its right or not. enjoy!

(p.s. everything is distortion in case you didnt know...which i hope you did)

(p.s.s. it's my first tab, leave me alone *huddles in the fetal position*)

 

 

Tablature Key:

/=slide up

\=slide down

*=natural harmonic

pm=palm mute

 

 

-------------|----------------------------------------------------------------

-------------|----------------------------------------------------------------

-------------|----------------------------------------------------------------

-3-3---------|-3--------------------------------------------------------------

-3-3---------|-3--------------------------------------------------------------

-------------|----------------------------------------------------------------

with delay volume swell

 

-------------|------------------|-------------|------------------|------------

-------------|------------------|-------------|------------------|------------

-------------|----------------5*|-------------|---------------5*-|------------

-------------|----------------5*|-55-55-55-55-|---------------5*-|------------ x2

-33-33-33-33-|-33-33-33-33-33---|-33-33-33-33-|33-33-33-33-33----|------------

-33-33-33-33-|-33-33-33-33-33---|-33-33-33-33-|33-33-33-33-33----|------------

verse1 pm .. pm ..

 

-|---|---|--|--|---|--|-------------------------------------------------------

-|---|---|--|--|---|--|-------------------------------------------------------

-|---|---|--|--|-5-|--|-------------------------------------------------------

-|-3-|-5-|-2|-3|-3-|-3|------------------------------------------------------- x2

-|-3-|-5-|-2|-3|-3-|-3|-------------------------------------------------------

-|-3-|-5-|-2|-3|-3-|-3|-------------------------------------------------------

chords used in chorus in order

 

------------------------------------------------------------------------------

------------------------------------------------------------------------------

----------------5*------------------------------------------------------------

----------------5*------------------------------------------------------------

-33-33-33-33-33---------------------------------------------------------------

-33-33-33-33-33---------------------------------------------------------------

pm ..

 

-----------------|-------------------|----------------|-----------------------

-----------------|-------------------|----------------|-----------------------

-----------------|----------------5*-|----------------|----------------5*-----

-----------------|----------------5*-|55-55-55-55-555-|----------------5*----- x2

-33-33-33-33-333-|-33-33-33-33-33----|33-33-33-33-333-|-33-33-33-33-33--------

-33-33-33-33-333-|-33-33-33-33-33----|33-33-33-33-333-|-33-33-33-33-33--------

pm .. .. .. ..

 

-|---|---|--|--|---|--|-------------------------------------------------------

-|---|---|--|--|---|--|-------------------------------------------------------

-|---|---|--|--|-5-|--|-------------------------------------------------------

-|-3-|-5-|-2|-3|-3-|-3|------------------------------------------------------- x2

-|-3-|-5-|-2|-3|-3-|-3|-------------------------------------------------------

-|-3-|-5-|-2|-3|-3-|-3|-------------------------------------------------------

 

 

------------------------|-----------------|-----------------------------------

------------------------|-----------------|-----------------------------------

------------------------|-----------------|----------------5*-----------------

-3\----0-0---5\-----0-0-|-33-33-33-33-333-|-33-33-33-33-33-5*-----------------

-3\----0-0---5\-----0-0-|-33-33-33-33-333-|-33-33-33-33-33--------------------

-3\----0-0---5\-----0-0-|-33-33-33-33-333-|-33-33-33-33-33--------------------

pm . . . . .. ..

 

 

------------------------|-----------------|-----------------------------------

------------------------|-----------------|-----------------------------------

------------------------|-----------------|-----------------------------------

-3\----0-0---5\-----0-0-|-33-33-33-33-333-|-----------------------------------

-3\----0-0---5\-----0-0-|-33-33-33-33-333-|-----------------------------------

-3\----0-0---5\-----0-0-|-33-33-33-33-333-|-----------------------------------

pm . . . . ..

 

------------------------------------------------------------------------------

------------------------------------------------------------------------------

------------------------------------------------------------------------------ x2

-----------9-----5----7-------------------------------------------------------

-----------9-----5----7-------------------------------------------------------

--3-5-6-8--9-----5----7-------------------------------------------------------

 

 

-----------------|-------------------|----------------|-----------------------

-----------------|-------------------|----------------|-----------------------

-----------------|----------------5*-|----------------|----------------5*-----

-----------------|----------------5*-|----------------|----------------5*----- x2

-33-33-33-33-333-|-33-33-33-33-33----|33-33-33-33-333-|-33-33-33-33-33--------

-33-33-33-33-333-|-33-33-33-33-33----|33-33-33-33-333-|-33-33-33-33-33--------

pm .. .. .. ..

 

-|---|---|---|-----|-----|---|---|---|---|------------------------------------

-|---|---|---|-----|-----|---|---|---|---|------------------------------------

-|---|---|---|-----|-----|---|---|---|---|------------------------------------

-|-3-|-5-|-2-|-10/-|-----|-3-|-5-|-2-|-3-|------------------------------------

-|-3-|-5-|-2-|-10/-|-----|-3-|-5-|-2-|-3-|------------------------------------

-|-3-|-5-|-2-|-10/-|-----|-3-|-5-|-2-|-3-|------------------------------------

chorus 3

 

-|-----|-----|-----------------|-------------------------------------|--------

-|-----|-----|-----------------|-------------------------------------|--------

-|-----|-----|-----------------|-5-5-5-5/7-7-7-7/9-9-9-9/10-10-10-10-|--------

-|-3---|-5---|-----------------|-------------------------------------|--------

-|-3-x8|-5-x8|-33-33-33-33-333-|-3-3-3-3/5-5-5-5/7-7-7-7/8--8--8--8--|--------

-|-3---|-5---|-33-33-33-33-333-|-------------------------------------|--------

 

 

-|-----|-----|----------------------------------------------------------------

-|-----|-----|----------------------------------------------------------------

-|-----|-----|----------------------------------------------------------------

-|-3---|-5---|-2--------------------------------------------------------------

-|-3-x8|-5-x8|-2--------------------------------------------------------------

-|-3---|-5---|-2--------------------------------------------------------------

 

 

And that's pretty much it. any questions/comments email me at evanescence21@hotmail.com

Return to my Evanescence tabs page

The Tablature is Copyright its respective owners.

Sign Up For My Newsletter
Subscribe | Unsubscribe

Site Map | Disclaimer | Privacy Policy | Media Kit | Submissions/Corrections

Website © 2000-2014 mattsmusicpage.com. All rights reserved.

Legal & DMCA: Matt's Music Page has been providing lyrics and tabs in a legal way, paying royalties each year to a few organizations. Then, all lyrics and tabs were removed from the site. Now, there's a new owner to the site, which purchased it August 26, 2014, and he is in negotiation to obtain licensing from BMI at the moment. If you have a specific DMCA request -- please do not hesitate to contact me via the contact button on top. I will do my very best to keep this site fully legal.

Get our toolbar!