Your One-Stop Source For
Music Lyrics
Bass and Guitar Tabs
and More...
Music Lyrics Bass and Guitar Tabs

 

The Evanescence Guitar Tabs Are Below

Learn To Read Tab
Chords Handbook
Corrections & Additions
Get Official Tab
Evanescence tabs @ 911Tabs

Evanescence

Breathe No More

 

E-----------5------3--2-|-----------3-----2-----0--|-----------5------3--2-|

B-----3-----------------|-----0--------------------|-----3-----------------|

G-----------------------|--------------------------|-----------------------|

D--------4--------------|--------0-----------2-----|--------4--------------|

A--2--------------------|--------------0-----------|--2--------------------|

E-----------------------|--3-----------------------|-----------------------|

 

-----------3-----2-----0-|-----------5------3--2-|-----------3-----2-----0-|

-----0-------------------|-----3-----------------|-----0-------------------|

-------------------------|-----------------------|-------------------------|

--------0-----------2----|--------4--------------|--------0-----------2----|

--------------0----------|--2--------------------|--------------0----------|

--3----------------------|-----------------------|--3----------------------|

 

-----------5------3--2--|-----------3-----2-----0--|-----------5------3--2-|

-----3------------------|-----0--------------------|-----3-----------------|

------------------------|--------------------------|-----------------------|

--------4---------------|--------0-----------2-----|--------4--------------|

--2---------------------|--------------0-----------|--2--------------------|

------------------------|--3-----------------------|-----------------------|

 

-----------3-----2-----0-|-----------5------3--2-|-----------0-------------|

-----0-------------------|-----3-----------------|-----0-----------3--2--0-|

-------------------------|-----------------------|-------------------------|

--------0-----------2----|--------4--------------|--------0-----------2----|

--------------0----------|--2--------------------|--------------0----------|

--3----------------------|-----------------------|--3----------------------|

 

-----------------------|-----0--2--0--------------|------------------------|

--------0--2----3------|-----------------3--2--0--|--------0--2----3----0--|

-----------------------|--------0-----------2-----|------------------------|

-----4-----------------|-----0-----0-----2--------|-----4------------------|

--2--------------------|--------------0-----------|--2---------------------|

-----------------------|--3-----------------------|------------------------|

 

-------------------------|-----------------------|-----0--2--0-------------|

-------------------------|--------0--2----3------|-----------------3--2--0-|

--------0--2--------2----|-----------------------|--------0-----------2----|

-----0-----------2-------|-----4-----------------|-----0-----------2-------|

--------------0----------|--2--------------------|--------------0----------|

--3----------------------|-----------------------|--3----------------------|

 

------------------------|--------------------------|-----------2-----------|

--------0--2----3----0--|--------------------------|--2------------------0-|

------------------------|--------0--2--------2-----|----------------3------|

-----4------------------|-----0-----------2--------|--------4--------------|

--2---------------------|--------------0--------0--|-----4-----------------|

------------------------|--3-----------------------|--2--------------------|

 

-----------3----2-------|-----------------------|-----------------------|

---------------------3--|--------0--2----3------|-----------2----3------|

--------0---------------|-----------------------|--------2--------------|

-----0------------------|-----4-----------------|-----4-----------------|

------------------------|--2--------------------|--0--------------------|

--3---------------------|-----------------------|-----------------------|

 

-----------2------------|---------------------0--|------------------------|

----------------2----0--|-----------2----3-------|-----------2---------2--|

--3---------------------|--------0---------------|--------2-------2-------|

--------4---------------|-----0------------------|-----2------------------|

-----4------------------|------------------------|--0---------------------|

--2---------------------|--3---------------------|------------------------|

 

------------------|--5-----------3-----------|--2-----------0-----------|

------------------|--------3-----------3-----|--------3-----------3-----|

------------------|--------0-----------0-----|--------2-----------2-----|

------------------|-----0-----0-----0-----0--|-----2-----2-----2-----2--|

------------------|--------------------------|--0-----------------------|

------------------|--3-----------------------|--------------------------|

 

--5-----------3-----------|--2-----------0--------0--|

--------3-----------3-----|--------3-----------3-----|

--------0-----------0-----|--------2-----------2-----|

-----0-----0-----0-----0--|-----2-----2-----2--------|

--------------------------|--0-----------------------|

--3-----------------------|--------------------------|

 

--2-----------5-----------|--0--------0-----------0--|

--------3-----------3-----|--------3-----3-----3-----|

--------4-----------------|--------2-----------2-----|

-----4-----4-----4-----4--|-----2-----------2--------|

--2-----------------------|--0-----------------------|

--------------------------|--------------------------|

 

--2-----------5-----------|--0----------------|-----------5------3--2--|

--------3-----------3-----|-------------------|-----3------------------|

--------4-----------------|-------------------|------------------------|

-----4-----4-----4-----4--|-------------------|--------4---------------|

--2-----------------------|--0----------------|--2---------------------|

--------------------------|-------------------|------------------------|

 

-----------3-----2-----0-|-----------5------3--2-|-----------3-----2-----0-|

-----0-------------------|-----3-----------------|-----0-------------------|

-------------------------|-----------------------|-------------------------|

--------0-----------2----|--------4--------------|--------0-----------2----|

--------------0----------|--2--------------------|--------------0----------|

--3----------------------|-----------------------|--3----------------------|

 

-----------5------3--2--|-----------3-----2-----0--|-----------5------3--2-|

-----3------------------|-----0--------------------|-----3-----------------|

------------------------|--------------------------|-----------------------|

--------4---------------|--------0-----------2-----|--------4--------------|

--2---------------------|--------------0-----------|--2--------------------|

------------------------|--3-----------------------|-----------------------|

 

-----------3-----2-----0-|-----------5------3--2-|-----------3-----2-----0-|

-----0-------------------|-----3-----------------|-----0-------------------|

-------------------------|-----------------------|-------------------------|

--------0-----------2----|--------4--------------|--------0-----------2----|

--------------0----------|--2--------------------|--------------0----------|

--3----------------------|-----------------------|--3----------------------|

 

-----------5------3--2--|-----------0--------------|-----------------------|

-----3------------------|-----0-----------3--2--0--|--------0--2----3------|

------------------------|--------------------------|-----------------------|

--------4---------------|--------0-----------2-----|-----4-----------------|

--2---------------------|--------------0-----------|--2--------------------|

------------------------|--3-----------------------|-----------------------|

 

-----0--2--0-------------|------------------------|------------------------|

-----------------3--2--0-|--------0--2----3--2--0-|------------------------|

--------0-----------2----|------------------------|--------0--2-------2----|

-----0-----------2-------|-----4------------------|-----0----------2-----2-|

--------------0----------|--2---------------------|--------------0---------|

--3----------------------|------------------------|--3---------------------|

 

-----------------------|-----0--2--0--------------|------------------------|

--------0--2----3------|-----------------3--2--0--|--------0--2----3--2--0-|

-----------------------|--------0-----------2-----|------------------------|

-----4-----------------|-----0-----0-----2-----2--|-----4------------------|

--2--------------------|--------------0-----------|--2---------------------|

-----------------------|--3-----------------------|------------------------|

 

--------------------------|-----------2------------|-----------3----2------|

--------------------------|--2------------------0--|---------------------3-|

--------0--2--------2-----|----------------3-------|--------0--------------|

-----0-----------2-----2--|--------4---------------|-----0-----------------|

--------------0-----------|-----4------------------|-----------------------|

--3-----------------------|--2---------------------|--3--------------------|

 

-----------------------|-----------------------|-----------2------------|

--------0--2----3------|-----------2----3------|----------------2----0--|

-----------------------|--------2--------------|--3---------------------|

-----4-----------------|-----4-----------------|--------4---------------|

--2--------------------|--0--------------------|-----4------------------|

-----------------------|-----------------------|--2---------------------|

 

---------------------0--|-----------0----5----12--|------------------|

-----------2----3-------|-------------------------|------------------|

--------0---------------|--------2----------------|------------------|

-----0------------------|-----2-------------------|------------------|

------------------------|--0----------------------|------------------|

--3---------------------|-------------------------|------------------|

 

--17------------15--------------|----------------------------------|

----------15------------15------|--19--------------17--------------|

--0-----------------------------|----------19--------------19------|

----------17--------17----------|----------19--------------19------|

------17--------------------17--|------19------19------19------19--|

--------------------------------|--17------------------------------|

 

--17--------------15--------------|----------------------------------|

----------15--------------15------|--19--------------17----------17--|

----------------------------------|----------19--------------19------|

----------17------17--------------|----------19------19------19------|

------17------17------17------17--|------19------19------19----------|

--15------------------------------|--17------------------------------|

 

------------------17--------------|--------------12--------------12--|

--19------15--------------15------|--17------15------15------15------|

----------16------16------16------|----------14--------------14------|

------16------16------16------16--|------14--------------14----------|

----------------------------------|----------------------------------|

--19------------------------------|--17------------------------------|

 

--14------10------17--------------|------------------15------14------|

----------12--------------15------|--17------14----------------------|

------11------11--16------16------|----------14------14------14------|

----------------------16------16--|------14------14------14------14--|

--14------------------------------|----------------------------------|

----------------------------------|--17------------------------------|

 

--5-----------3-----------|--2-----------0-----------|

--------3-----------3-----|--------3-----------3-----|

--------0-----------0-----|--------2-----------2-----|

-----------0-----0-----0--|-----2-----2-----2-----2--|

-----5--------------------|--0-----------0-----------|

--3-----------3-----------|--------------------------|

 

--5-----------3-----------|--2-----------0--------0--|

--------3-----------3-----|--------3-----------3-----|

--------0-----------0-----|--------2-----------2-----|

-----0-----0-----0-----0--|-----2-----2-----2--------|

--------------------------|--0-----------0-----------|

--3-----------3-----------|--------------------------|

 

--2-----------5-----------|--0-----5-----------0-----|

--------3-----------3-----|--------------2--3-----3--|

--------4-----------------|--------2--------2-----2--|

-----4-----4-----4--------|-----2-----2--------2-----|

--2--------------------2--|--0-----------------------|

--------------7-----------|--------------------------|

 

--2-----------5-----------|--0-----5-----------0-----|

--------3-----------3-----|--------------2-----------|

--------4-----------4-----|--------2-----------2-----|

-----4-----4-----4-----4--|-----2-----2-----2-----2--|

--2-----------------------|--0-----------0-----------|

--------------7-----------|--------------------------|

 

--2-----------5--------2--|--0-----5-------------0--|----------------------|

--------3-----------------|--------------2----3-----|--3-----0--2----3-----|

--------4-----------4-----|--------------2----------|----------------------|

-----4-----4-----4-----4--|-----2-----2-------------|-----4----------------|

--2-----------------------|--0----------------------|--2-------------------|

--------------7-----------|-------------------------|----------------------|

 

-------------------|-----------5------3--2--|-----------3-----2-----0--|

-------------------|-----3------------------|-----0--------------------|

--2----------------|------------------------|--------------------------|

-------------------|--------4---------------|--------0-----------2-----|

--0----------------|--2---------------------|--------------0-----------|

-------------------|------------------------|--3-----------------------|

 

-----------5------3--2--|--------------------------|-------------------|

-----3------------------|-----0-----2--------------|--0----------------|

------------------------|-----------------2--------|--4----------------|

--------4---------------|--------0-----------2--4--|--4----------------|

--2---------------------|--------------0-----------|--2----------------|

------------------------|--3-----------------------|-------------------|

Return to my Evanescence Guitar Tabs page

The Tablature is Copyright its respective owners.

Sign Up For My Newsletter
Subscribe | Unsubscribe

Site Map | Disclaimer | Privacy Policy | Media Kit | Submissions/Corrections

Website © 2000-2014 mattsmusicpage.com. All rights reserved.

Legal & DMCA: Matt's Music Page has been providing lyrics and tabs in a legal way, paying royalties each year to a few organizations. Then, all lyrics and tabs were removed from the site. Now, there's a new owner to the site, which purchased it August 26, 2014, and he is in negotiation to obtain licensing from BMI at the moment. If you have a specific DMCA request -- please do not hesitate to contact me via the contact button on top. I will do my very best to keep this site fully legal.

Get our toolbar!