Your One-Stop Source For
Music Lyrics
Bass and Guitar Tabs
and More...
Music Lyrics Bass and Guitar Tabs

The Eagles Guitar Tabs Are Below

Learn To Read Tab
Chords Handbook
Corrections & Additions
Get Official Tab
Eagles tabs @ 911Tabs

SONG'S STRUCTURE:

-INTRO

-(I)2x

-(II)

-(I)

-INTRO 2x

 

(INTRO)

 

 

C G/B Am

e|----0--------0-------3---------3----0---------0-----0--------------|

B|--------1-----------------3---------------1-----------------1--3---|

G|------0----0----0-------0---0----0------2---2---2------2-----------| 2x

D|-------------------------------------------------------------------|

A|----3----------------2--------------0---------------0-------0--2---|

E|-------------------------------------------------------------------|

 

 

(I)

 

C G/B Am

e|----0--------0-------3---------3----0---------0-----0---------------------|

B|--------1-----------------3---------------1-----------------1--3----------|

G|------0----0----0-------0---0----0------2---2---2------2------------------|

D|--------------------------------------------------------------------------|

A|----3----------------2--------------0---------------0-------0--2----------|

E|--------------------------------------------------------------------------|

 

C G/B Am

e|----0--------0-------3---------3----0---------0-----0----------0----------|

B|--------1-----------------3---------------1-----------------3-------------|

G|------0----0----0-------0---0----0------2---2---2------2------------------|

D|--------------------------------------------------------------------------|

A|----3----------------2--------------0---------------0-------2--3----------|

E|--------------------------------------------------------------------------|

 

 

Dm Dm/C G/B

e|--1---------1-----1-----------1-------3--------3----3---------0-----------|

B|-------3----------------3------------------3--------------3---------------|

G|-----2---2----2------2----2------2-------0---0---0----0-------------------|

D|--0-----------------------------------------------------------------------|

A|------------------3-------------------2-------------2-----2---3-----------|

E|--------------------------------------------------------------------------|

 

 

Dm Dm/C G/B (1) (2)

e|--1---------1-----1-----------1-------3--------3----3-|-------|---3--------|

B|-------3----------------3------------------3----------|---1-3-|------------|

G|-----2---2----2------2----2------2-------0---0---0----|-0-----|-0---0------|

D|--0---------------------------------------------------|-------|------------|

A|------------------3-------------------2-------------2-|---0-2-|------------|

E|------------------------------------------------------|-------|------------|

 

 

(II)

 

F/C C

e|--1--------1--1----------1--1p0-----------0----0---------0----------------|

B|------1------------1----------------1---------------1---------------------|

G|----2------------2---------------0----------------0-----------------------|

D|--------3-------------3----------------2---------------2------------------|

A|--3-----------3--------------3-----------------3--------------------------|

E|--------------------------------------------------------------------------|

 

 

F/C C

e|--1--------1--1----------1--1p0-----------0----0------|-------------------|

B|------1------------1----------------1-----------------|--1--3-------------|

G|----2------------2---------------0--------------------|-------------------|

D|--------3-------------3----------------2--------------|-------------------|

A|--3-----------3--------------3-----------------3------|--0--2-------------|

E|------------------------------------------------------|-------------------|

 

 

C G/B Am

Say goodbye to all your pain and sorrow

C G/B Am

Say goodbye to all those lonely nights

Dm Dm/C G/B

Say goodbye to all your blue tomorrows

Dm Dm/C G/B

Now you're standing in the light

C G/B Am

I know sometimes you feel so helpless

C G/B Am

Sometimes you feel like you can't win

Dm Dm/C G/B

Sometimes you feel so isolated

Dm Dm/C G/B

You'll never have to feel that way again

 

F/C C

You are not alone

F/C C

You're not alone

 

C G/B Am

Never thought I'd find the road to freedom

C G/B Am

Never thought I'd see you smile again

Dm Dm/C G/B

Never thought I'd have the chance to tell you

Dm Dm/C G/B

That I will always be your friend

 

F/C C

You are not alone

F/C C

You're not alone

 

 

Chords:

C: x32010

G/B: x20033

Am: x02210

Dm: xx0231

Dm/C: x3x231

F/C: x33211

Click here to return to my Eagles Guitar Tabs page

The Eagles Guitar Tablature is Copyright its respective owners.

Sign Up For My Newsletter
Subscribe | Unsubscribe

Site Map | Disclaimer | Privacy Policy | Media Kit | Submissions/Corrections

Website © 2000-2014 mattsmusicpage.com. All rights reserved.

Legal & DMCA: Matt's Music Page has been providing lyrics and tabs in a legal way, paying royalties each year to a few organizations. Then, all lyrics and tabs were removed from the site. Now, there's a new owner to the site, which purchased it August 26, 2014, and he is in negotiation to obtain licensing from BMI at the moment. If you have a specific DMCA request -- please do not hesitate to contact me via the contact button on top. I will do my very best to keep this site fully legal.

Get our toolbar!