Your One-Stop Source For
Music Lyrics
Bass and Guitar Tabs
and More...
Music Lyrics Bass and Guitar Tabs

 

The Tabs Are Below

Learn To Read Tab
Chords Handbook
Corrections & Additions
Get Official Tab
Eagles tabs @ 911Tabs

 

 

E :------0---------|-----0--------0-|-------------0--|------0----------|

B :---------0------|--0-------------|-0--------0-----|---------0-------|

G :---------------2|----------------|-------2--------|---------------2-|

D :---2------------|-----------2----|----------------|---2-------------|

A :0---------------|--------0-------|----------------|-----------------|

E :----------------|----------------|----------------|2----------------|

 

E :----0--------0--|------------0---|-----0--------------0|

B :-0--------------|0--------0------|--------0--------0---|

G :----------------|------2---------|--2-----------2------|

D :----------2-----|---------------0|---------------------|

A :----------------|----------------|---------------------|

E :-------2--------|----------------|---------------------|

 

E :--------0--------|------0--------0|--------------0------|

B :-----------0-----|---0------------|--0--------0---------|

G :-----2-----------|2---------------|--------1------------|

D :--0--------------|------------2---|--------------------2|

A :-----------------|----------------|---------------------|

E :-----------------|---------0------|-----------------0---|

 

E :--0-------------|-0--- 5|

B :-----0--------0-|----- ||

G :-----------1----|-----*||

D :----------------|-----*||

A :----------------|----- ||

E :----------------|----- ||

 

 

Return to my to my Eagles tabs page

The Tablature is Copyright its respective owners.

Sign Up For My Newsletter
Subscribe | Unsubscribe

Site Map | Disclaimer | Privacy Policy | Media Kit | Submissions/Corrections

Website © 2000-2014 mattsmusicpage.com. All rights reserved.

Legal & DMCA: Matt's Music Page has been providing lyrics and tabs in a legal way, paying royalties each year to a few organizations. Then, all lyrics and tabs were removed from the site. Now, there's a new owner to the site, which purchased it August 26, 2014, and he is in negotiation to obtain licensing from BMI at the moment. If you have a specific DMCA request -- please do not hesitate to contact me via the contact button on top. I will do my very best to keep this site fully legal.

Get our toolbar!