Your One-Stop Source For
Music Lyrics
Bass and Guitar Tabs
and More...
Music Lyrics Bass and Guitar Tabs

 

The Eagles Guitar Tabs Are Below

Learn To Read Tab
Chords Handbook
Corrections & Additions
Get Official Tab
Eagles tabs @ 911Tabs

Tuning: Standard with CAPO on the first fret

 

Structure:

-verse (2x)

-(II)

-(III)

 

 

(VERSE)

 

D G D/F# A Asus4

e|--------------------------------------------------------------------------|

B|---------3----------3----0-------------3---2-------2h3--------------------|

G|------2----------2------------0---2-------------2-------------------------|

D|---0----------0-------------0--------0--------2---------------------------|

A|-------------------------------------------0------------------------------|

E|-------------------------3--------2---------------------------------------|

 

G D/F# A Asus4 G D/F#

e|-----------------------------------------------------------------------|

B|-----0------------------2-------2h3--0--------------3------------------|

G|-----------0---2-------------2------------0---2------------------------|

D|---------0-----------------2------------0--------0---------------------|

A|------------------------0----------------------------------------------|

E|-----3---------2---------------------3--------2------------------------|

 

A D G D/F#

e|--------------------------------------------------------------------------|

B|-----2--------3---2---0---------------------------------------------------|

G|----------2-----------------0---2-----------------------------------------|

D|--------2-----4---2------0------------------------------------------------|

A|-----0--------------------------------------------------------------------|

E|----------------------3---------2-----------------------------------------|

 

Bm F#m/A G Bm A D

e|--------------------------------------------------------------------------|

B|-----3----------2---------0---------3---------2--------3------------------|

G|-----------4---------2---------0----------4--------2----------------------|

D|--------4----------4---------0---------4---------2-----4------------------|

A|-----2----------0-------------------2---------0---------------------------|

E|--------------------------3-----------------------------------------------|

 

G D/F# A D G D

e|------------------------------------------------------------------0-------|

B|---0-------------3---2-------3----0------------3-------3--------3---3-----|

G|--------0---2-------------2------------0-----2-------2--------2-------2---|

D|------0--------0--------2----4------0------0-------0--------0-------------|

A|---------------------0----------------------------------------------------|

E|---3--------2---------------------3---------------------------------------|

 

 

(II)

 

G D/F# Em7 D/F# G A Bbdim Bm

e|------------------------------------------------------------------------|

B|---0-----3------3-------3--------3---0------2-------2------3------------|

G|------------2------0--------2------------0-------2------0---------------|

D|------0-------0-------0--------0-------0-------2------2-------4---------|

A|--------------------------------------------0-------1------2------0-----|

E|---3--------2------0--------2--------3----------------------------------|

 

G D/F# Em7 D/F# A Em/G Em7 A

e|--------------------------------------------------------------------------|

B|---0-----3------3-------3--------3---2-------0-------------0--2--3--5-----|

G|------------2------0--------2-------------2-------------0-----------------|

D|------0-------0-------0--------0--------2-------2--4--5-------------------|

A|-------------------------------------0------------------------0--2--4-----|

E|---3--------2------0--------2----------------3--------0-------------------|

 

G D/F# Asus4

e|-------------------------------------|

B|---0-------3--------------2h3--------|

G|-------0------0---------2------------|

D|-----0----------4-----2--------------|

A|--------------------0----------------|

E|---3-------2-------------------------|

 

(III)

 

D G D/F# A Asus4

e|---2-----------------------------------------------------------------------|

B|---3---------------------0-----------------2-------2h3---------------------|

G|---2--------------------------0---2-------------2--------------------------|

D|---0------------------------0-----------------2----------------------------|

A|-------------------------------------------0-------------------------------|

E|-------------------------3--------2----------------------------------------|

 

G D/F# A Asus4 G D/F#

e|-----------------------------------------------------------------------|

B|-----0------------------2-------2h3--0--------------3------------------|

G|-----------0---2-------------2------------0---2------------------------|

D|---------0-----------------2------------0--------0---------------------|

A|------------------------0----------------------------------------------|

E|-----3---------2---------------------3--------2------------------------|

 

A D G D/F#

e|--------------------------------------------------------------------------|

B|-----2--------3---2---0---------------------------------------------------|

G|----------2-----------------0---2-----------------------------------------|

D|--------2-----4---2------0------------------------------------------------|

A|-----0--------------------------------------------------------------------|

E|----------------------3---------2-----------------------------------------|

 

 

Bm F#m/A G Bm

e|------------------------------------------------------------------------|

B|-----3----------2---------0---------3-----------------------------------|

G|-----------4---------2---------0----------4-----------------------------|

D|--------4----------4---------0---------4--------------------------------|

A|-----2----------0-------------------2-----------------------------------|

E|--------------------------3---------------------------------------------|

 

 

Bm F#m/A G Bm

e|---------------------------------------------------------------------------|

B|-----3----------2---------0------------3--3------3--3-----3--3----3--------|

G|-----------4---------2---------0-------0--2------0--2-----0--2----0--------|

D|--------4----------4---------0------4---------4--------4-------4-----4-----|

A|-----2----------0-------------------2------------------2-------------------|

E|--------------------------3------------------------------------------------|

 

Bm F#m/A G Bm A D

e|--------------------------------------------------------------------------|

B|-----3----------2---------0---------3-----3---2--------3---2--------------|

G|-----------4---------2---------0-------------------2----------------------|

D|--------4----------4---------0---------4---------2-----4---2--------------|

A|-----2----------0-------------------2---------0---------------------------|

E|--------------------------3-----------------------------------------------|

 

G D/F# A D G D

e|----------------------------------3------------2--------------------------|

B|---0-------------3---2-------3----0------------3--------------------------|

G|--------0---2-------------2-------0------------2--------------------------|

D|------0--------0--------2----4----0------------0--------------------------|

A|---------------------0------------2---------------------------------------|

E|---3--------2---------------------3---------------------------------------|

 

 

D G D/F#

I Love To Watch A Woman Dance

A Asus4 G D/F#

She Bows Her Head And Lifts Her Hands

A Asus4 G D/F#

Her Hips Begin To Circle Slowly

A D G D/F#

Her Eyes Have Closed; Her Face Is Holy

Bm F#m/A G Bm

She Holds The Whole World In Trance

A D G D/F#

I Love To Watch A Woman Dance

A D G D

Yeah, I Love To Watch A Woman Dance

 

G D/F#

She Likes The Slow Songs Of Love Lost

A Asus4 G D/F#

They Take Her A Million Miles Away

A Asus4 G D/F#

'cause To Dream, Sometimes, Is The Only Way

A D G D/F#

To Go Places You Can't Get To Any Other Way

Bm F#m/A G Bm

Our Eyes Connect; She Takes My Hand

A D G D/F#

I Love To Watch A Woman Dance

A D G D

Yeah, I Love To Watch A Woman Dance

 

G D/F# Em7 D/F#

I Feel My Heart Beating, And I Wonder

G A Bbdim Bm

Will It Ever Satisfy My Longing?

G D/F# Em7 D/F#

I'm Gonna Hold On To You For As Long As I Can

A Em/G Em7 A G D/F# Asus4

For Who Knows, This Dance May Be Our Only Dance

 

D G D/F#

So We Danced Together, Close And Slow

A Asus4 G D/F#

So Slow Almost Standing Still

A Asus4 G D/F#

Her Warm Breath Against My Neck

A D G D/F#

Slowly Breaking Down My Will

Bm F#m/A G Bm

The Room Spins So I Can Barely Stand

Bm F#m/A G Bm

The Song Ends; Then, She Lets Go Of My Hand

Bm F#m/A G Bm

There's So Much I Don't Understand

A D G D/F#

But I Love To Watch A Woman Dance

A D G D

Yeah, I Love To Watch A Woman Dance

 

 

Chords:

D: xx0232

G: 320001

D/F#: 2x0232

A: x02220

Asus4: x02230

Bm: x24432

F#m/A: x04222

Em7: 022030

Em/G: 3x2000

Click here to return to my Eagles Guitar Tabs page

The Eagles Guitar Tablature is Copyright its respective owners.

Sign Up For My Newsletter
Subscribe | Unsubscribe

Site Map | Disclaimer | Privacy Policy | Media Kit | Submissions/Corrections

Website © 2000-2014 mattsmusicpage.com. All rights reserved.

Legal & DMCA: Matt's Music Page has been providing lyrics and tabs in a legal way, paying royalties each year to a few organizations. Then, all lyrics and tabs were removed from the site. Now, there's a new owner to the site, which purchased it August 26, 2014, and he is in negotiation to obtain licensing from BMI at the moment. If you have a specific DMCA request -- please do not hesitate to contact me via the contact button on top. I will do my very best to keep this site fully legal.

Get our toolbar!