Your One-Stop Source For
Music Lyrics
Bass and Guitar Tabs
and More...
Music Lyrics Bass and Guitar Tabs

 

The Duran Duran Guitar Tabs Are Below

Learn To Read Tab
Chords Handbook
Corrections & Additions
Get Official Tab

Duran Duran - Want You More! (2004)

 

Tabbed by: trevgreg

Email: trevgreg1227@hotmail.com

 

Tuning: Standard

 

 

This is the second track from the band's Astronaut album. The song contains both

guitar and acoustic parts during the song. And the chords are fairly easy to grasp once you know

them.

 

 

The opening intro seems to revolve around a G/E chord, alternating between downward and upward

strokes each time the chord's played.

G/E

e|--7--7--7-----7--7--7--7--7------------------------------------------------|

B|--8--8--8-----8--8--8--8--8------------------------------------------------|

G|--7--7--7-----7--7--7--7--7------------------------------------------------|

D|--9--9--9-----9--9--9--9--9------------------------------------------------|

A|--7--7--7-----7--7--7--7--7------------------------------------------------|

E|---------------------------------------------------------------------------|

 

The verses are pretty much like the intro guitar. When performed live though, Andy

seems to end the riff by hitting an Esus4. But it doesn't sound like this is included on the album

version, though it's a neat way to end it.

 

G/E (Esus4)

e|--7--7--7-----7--7--7--7--7-------------------------------------------|

B|--8--8--8-----8--8--8--8--8-------------------------------------------|

G|--7--7--7-----7--7--7--7--7-------------------------------------------|

D|--9--9--9-----9--9--9--9--9----7--------------------------------------|

A|--7--7--7-----7--7--7--7--7----7--------------------------------------|

E|-------------------------------7--------------------------------------|

 

 

For the "Whatever I'm thinking of..." parts, it's a bit tricky to hear what Andy Taylor

doing for these parts. However, I did my best to get an idea of what he was trying to play

here. Either way, I think he's using some chords that aren't really obvious. But it

should be similar to this progression.

 

Em G Cadd9

e|--3---3-----3---3-----3---3-----3---3-----3---3--------|

B|--0---0-----3---3-----3---3-----3---3-----3---3--------|

G|--0---0-----0---0-----0---0-----0---0-----0---0--------|

D|--2---2-----0---0-----2---2-----2---2-----2---2--------|

A|--2---2-----2---2-----3---3-----3---3-----3---3--------|

E|--3---3-----3---3--------------------------------------|

 

G G Cadd9 A

e|--3---3-----3---3-----3---3-----3---3-----0---0---0----|

B|--3---3-----3---3-----3---3-----3---3-----2---2---2----|

G|--0---0-----0---0-----0---0-----0---0-----2---2---2----|

D|--0---0-----0---0-----2---2-----2---2-----2---2---2----|

A|--2---2-----2---2-----3---3-----3---3-----0---0---0----|

E|--3---3-----3---3--------------------------------------|

 

 

These are the chords played during the chorus of the song. There is also an acoustic

in the middle of the song, which uses the same chords. If you've seen the song peformed live,

this break is the part Simon LeBon plays on his acoustic guitar. The chorus is pretty

much straight downward strokes, while the acoustic break is more freestyle obviously.

Repeat as times as needed.

 

Em C A Em A B

e|--7-----8-----5----------7-----5-----7---------------------------------------|

B|--8-----8-----5----------8-----5-----7---------------------------------------|

G|--9-----9-----6----------9-----6-----8---------------------------------------|

D|--9-----10----7----------9-----7-----9---------------------------------------|

A|--7-----10----7----------7-----7-----9---------------------------------------|

E|--------8-----5----------------5-----7---------------------------------------|

 

 

At the end of the song, play the G5 and E5 chords once each immediately after finishing the

above chords.

 

G5 E5

e|----------------------------------------------------------------------|

B|----------------------------------------------------------------------|

G|--------9-------------------------------------------------------------|

D|--5-----9-------------------------------------------------------------|

A|--5-----7-------------------------------------------------------------|

E|--3-------------------------------------------------------------------|

 

 

Any feedback on this song is appreciated.

 

 

Verse One:

G/E

You had plans all along

G/E

Musta seen me coming down a mile above the ground

G/E

Coz I am weak where you are strong

G/E

It's a thrill that makes me curious

 

Em G

Whatever I'm thinking of

Cadd9

You always seem to know

G G

Coz nothing is good enough

Cadd9 A

There's always something to keep me guessing

 

Em C A

What it it's real, what if you're just faking?

Em A B

What if you knew you could?

Em C A

What if you get off on manipulating?

Em A B

Why does it feel so good?

 

G/E

Drivin' the car turn up the sound

G/E

Gets yer head in a hailstorm, man I'm gonna feel the blast

G/E

I pick you up - you throw me down

G/E

And it only gets more serious

 

Em G

What could you be thinking of?

Cadd9

You never let it show

G G

Coz you give me just enough

Cadd9 A

There's always something - you keep it coming

 

Em C A

What it it's real, what if you're just faking?

Em A B

What if you knew you could?

Em C A

What if you get off on manipulating?

Em A B

Why does it feel so good?

 

Em C A

Why do I want you more? Why do I want you?

Em A B

Why do I feel so torn?

Em A B

Why do I want you more? Why do I want you?

Em A B

Why do I want you more?

 

(Acoustic Break)

Em C A

Em A B

Em C A

Em A B

 

Em G

What could you be thinking of?

Cadd9

You never let it show

G G

Coz you give me just enough

Cadd9 (Cadd9)

There's always something - you keep it coming - just keep it coming

 

Em C A

What it it's real, what if you're just faking?

Em A B

What if you knew you could?

Em C A

What if you get off on manipulating?

Em A B

Why does it feel so good?

 

Em C A

Why do I want you more? Why do I want you?

Em A B

Why do I feel so torn?

Em C A

Why do I want you more? Why do I want you?

Em A B

Why do I want you more?

 

Em C A

Why do I want you more? Why do I want you?

Em A B

Why do I want you more? Why do I want?

Em C A

Why do I want you more? Why do I want you?

Em A B (G5 - E5)

Why do I want you more?

 

Return to my Duran Duran Guitar Tabs page

The Tablature is Copyright its respective owners.

Sign Up For My Newsletter
Subscribe | Unsubscribe

Site Map | Disclaimer | Privacy Policy | Media Kit | Submissions/Corrections

Website © 2000-2014 mattsmusicpage.com. All rights reserved.

Legal & DMCA: Matt's Music Page has been providing lyrics and tabs in a legal way, paying royalties each year to a few organizations. Then, all lyrics and tabs were removed from the site. Now, there's a new owner to the site, which purchased it August 26, 2014, and he is in negotiation to obtain licensing from BMI at the moment. If you have a specific DMCA request -- please do not hesitate to contact me via the contact button on top. I will do my very best to keep this site fully legal.

Get our toolbar!