Your One-Stop Source For
Music Lyrics
Bass and Guitar Tabs
and More...
Music Lyrics Bass and Guitar Tabs

 

The Tabs Are Below

Learn To Read Tab
Chords Handbook
Corrections & Additions
Get Official Tab
Doors tabs @ 911Tabs

 

Spanish Caravan

 

 

 

E :------------*--------------------------------------| ------------ 3|

B :---1--------*----------3-2-1-----------------------| 0-1---0----- ||

G :---0--------*--------------------------------------|*----2---0---*||

D :---2--------*---2-1-0--*---------------------------|*----------2-*||

A :---3--------*-------------------*------------------| ------------ ||

E :0-----------*3------------------3-/7---------------| ------------ ||

Zimgar15@aol.com

 

 

E :-------------- 3|-----| ------------ 3|------------ 3|

B :-------------- ||-----| ------------ ||------------ ||

G :--------------*||-----|*----4-----4-*||----3-----3-*||

D :9-10-7-9------*||-----|*--4-----4---*||--2-----2---*||

A :---------10-7- ||-----| 2-----2----- ||3-----3----- ||

E :-------------- ||-----| ------------ ||------------ ||

 

 

 

Return to my to my Doors tabs page

The Tablature is Copyright its respective owners.

Sign Up For My Newsletter
Subscribe | Unsubscribe

Site Map | Disclaimer | Privacy Policy | Media Kit | Submissions/Corrections

Website © 2000-2014 mattsmusicpage.com. All rights reserved.

Legal & DMCA: Matt's Music Page has been providing lyrics and tabs in a legal way, paying royalties each year to a few organizations. Then, all lyrics and tabs were removed from the site. Now, there's a new owner to the site, which purchased it August 26, 2014, and he is in negotiation to obtain licensing from BMI at the moment. If you have a specific DMCA request -- please do not hesitate to contact me via the contact button on top. I will do my very best to keep this site fully legal.

Get our toolbar!