Your One-Stop Source For
Music Lyrics
Bass and Guitar Tabs
and More...
Music Lyrics Bass and Guitar Tabs

 

The Tabs Are Below

Learn To Read Tab
Chords Handbook
Corrections & Additions
Get Official Tab
Doors tabs @ 911Tabs

 

Wishful Sinful - The Doors

 

0:00

G---|--9--7-----------|--------------|------------7-----9-----7--|--------------

D---|-----------7--5--|--------------|--------/7-----------------|--8-----------

A---|-----------------|--5-----------|--(5)----------------------|--------------

E---|-----------------|--------------|---------------------------|--------------

 

 

G---7--------|--------7--11-----7--------|--------7--10-----7--------|----------

D---------8--|--9------------------9-----|--8------------------8-----|--7-------

A------------|---------------------------|---------------------------|----------

E------------|---------------------------|---------------------------|----------

 

 

G---6--9-----6--------|--------------|-----------7-----9--------|---------------

D---------------7-----|--------------|--5--7-----------------7--|--8------------

A---------------------|--5-----------|--------------------------|---------------

E---------------------|--------------|--------------------------|---------------

 

 

G---------|--------------------------|--------------------------|---------------

D---------|-----------7--------------|--------------5-----------|---------------

A---------|-----5--8--------8--5-----|--------7-----------------|--------5------

E---------|--6--------------------6--|--8-----------------8--7--|--6------------

 

 

G------------------|--------------------------|--------------------------|------

D------------------|--------------------------|--------------------------|------

A------8-----5--8--|--------4-----7--------4--|--------------------------|------

E------------------|--5-----------------5-----|--5-----4-----3-----2-----|------

 

0:35

G------------------|---------------------------|----------------------4--|------

D------------------|---------------------------|--------2--5--2---/6-----|------

A------------------|------------------------2--|--3----------------------|------

E---1--------------|--(1)-----1--1--1--1/3-----|-------------------------|------

 

 

G---2-------------------2--|--------2--5--------------|--------7-----------7----

D------------2--0---/4-----|--3-----------------2--5--|-----7-----7-----7-------

A---------4----------------|--------------3-----------|--5-----------5----------

E--------------------------|--------------------------|-------------------------

 

 

G------|--------7-----------7-----|--------------------------|------------------

D---7--|-----7-----7-----7-----7--|--------------------------|------------------

A------|--5-----------5-----------|--3-----------------------|--------3--4------

E------|--------------------------|--------0--3--0-----3--4--|--5---------------

 

G---------------|--------2--5--------------|-------7-----------7-----|----------

D---------1--2--|--3-----------------2--5--|----7-----7-----7-----7--|-----7----

A---5-----------|--------------3-----------|/5-----------5-----------|--5-------

E---------------|--------------------------|-------------------------|----------

0:56

G---7-----7-----------|--------------|-------------------7-----9--|-------------

D------7-----7--5--7--|--------------|-------5-----7--------------|--8----------

A---------------------|--5-----------|--(5)-----------------------|-------------

E---------------------|--------------|----------------------------|-------------

 

 

G---7--------|--------7--11--------------|-----------10---------------|---------

D---------8--|--9------------------9-----|--8---/12---------12-----8--|--7------

A------------|------------------9-----9--|----------------------------|---------

E------------|---------------------------|----------------------------|---------

 

1:08

G---------9--------------|-----------------------|-----------------------|------

D----/11--------11--7\5--|-----------------5--6--|--7--------------------|------

A------------------------|--5-----5--5--7--------|--------x--0--2--3--4--|------

E------------------------|-----------------------|-----------------------|------

 

 

G---------------------------|---------------------||----------------------------

D---------------------5--6--|--7------------------||*--------7-----7------------

A---5--------x--5--7--------|---------------------||*-----------7--------7------

E---------------------------|--------5--5\---0/---||---5------------------------

 

 

G------|---------------------------||--------------------------|----------------

D---7--|--------7-----7--------7--*||--------7-----7--------7--|--------7-------

A------|-----------7--------7-----*||-----------7--------7-----|-----------7----

E------|--5------------------------||--5-----------------------|--5-------------

 

1:29

G---------------|--9p8-----------|--8p7-----------|--7p5-----------|--5p4-------

D---7-----7-----|----------------|----------------|----------------|------------

A---------------|----------------|----------------|----------------|------------

E---------------|----------------|----------------|----------------|------------

 

Drums enter

G---------|-----------------|-------------------|--------------------------|----

D---------|-----------------|-------------------|--------------------------|----

A---------|-----------------|----------------12\|--5--0--5--0--5--0--5--0--|----

E---------|--0--------------|--(0)--------------|--------------------------|----

 

 

G---------------------------|--------------------------|------------------------

D---------------------------|--------------------------|------------------------

A---5--0--x--0--5--0--5--0--|--5--0--5--0--5--0--5--0--|--5--0--5--0--5--0------

E---------------------------|--------------------------|------------------------

 

1:49

G---------|--------------------------|--------------------------|---------------

D---------|--------------------------|--------------------------|---------------

A---5--0--|--5--0--5--0--5--0--5--0--|--5--0--5--0--5--4--3--2--|--1-----1------

E---------|--------------------------|--------------------------|-----1---------

 

 

G------------------|--------------------------|--------------------------|------

D------------------|--------------------------|--------------------------|------

A------1-----1-----|--1-----1-----1-----1--2--|--3-----3-----3-----3--2--|------

E---1-----1-----1--|-----1-----1-----1--------|-----3-----3-----3--------|------

 

 

G--------------------------|--------------------------|-------------------------

D--------------------------|--------------------------|-------------------------

A---1-----1-----1-----1----|--------------------------|-------------------------

E------1-----1-----1-----1/|--5--5--5--5--5--5--5--5--|--5-----4-----3-----2----

 

2:10

G------|-----------------------|--------------------------------------|---------

D------|-----------------------|--------------------------------------|---------

A------|-----------------------|--------------------------------------|--3------

E------|--1--------1--1--1--1--|--(1)h3--1--(1)h3--1--(1)h3--1--1--1--|---------

 

 

G-----------------------|-----------------------------|--------2h5--------------

D--------5--------------|-----------------------1--2--|--3----------3-----------

A----/7-----------------|--------3--4--5^--(5)--------|----------------3--------

E-----------0-----3--4--|--5--------------------------|-------------------------

 

 

G-----------|--------7-----------7-----|--------7-----------7-----|-------------

D---2h5-----|-----7-----7-----7-----7--|-----7-----7-----7-----7--|--------2----

A--------3--|--5-----------5-----------|--5-----------5-----------|--3----------

E-----------|--------------------------|--------------------------|-------------

 

 

G--------------4--|--2-------------------2--|--------2--5--------------|--------

D---5--2---/6-----|-----------2--0---/4-----|--3-----------------2--5--|--------

A-----------------|--------4----------------|--------------3-----------|--5-----

E-----------------|-------------------------|--------------------------|--------

 

2:31

G------7-----------7-----|--------------------------||--------------------------

D---7-----7-----7-----7--|--------7-----------7-----||*-------------------------

A------------5-----------|-----7-----7-----7-----7--||*--5-----5--5--4--3--2----

E------------------------|--5-----------5-----------||--------------------------

 

 

G---|-----------------------|-----------------------|---------------------------

D---|-----------------------|-----------------------|---------------------------

A---|--0-----0--0--2--3--4--|--5-----5--5--4--3--2--|--0-----0--0--2--3--4------

E---|-----------------------|-----------------------|---------------------------

 

 

G----||-----------------|--11--------------|

D---*||-----------------|--0---------------|

A---*||--5--------------|------------------|

E----||-----------------|------------------|

 

Transcribed by Justin Benz

 

 

Return to my to my Doors bass tabs page

The Tablature is Copyright its respective owners.

Sign Up For My Newsletter
Subscribe | Unsubscribe

Site Map | Disclaimer | Privacy Policy | Media Kit | Submissions/Corrections

Website © 2000-2014 mattsmusicpage.com. All rights reserved.

Legal & DMCA: Matt's Music Page has been providing lyrics and tabs in a legal way, paying royalties each year to a few organizations. Then, all lyrics and tabs were removed from the site. Now, there's a new owner to the site, which purchased it August 26, 2014, and he is in negotiation to obtain licensing from BMI at the moment. If you have a specific DMCA request -- please do not hesitate to contact me via the contact button on top. I will do my very best to keep this site fully legal.

Get our toolbar!

 

Hard Rock Pin Las Vegas 4th of july red white and blue guitar
$5.0
Hard Rock Pin Las Vegas 4th of july red white and blue guitar picture


Hard Rock Pin Hollywood Fl Bell Girl with dice luggage and guitar
$5.0
Hard Rock Pin Hollywood Fl Bell Girl with dice luggage and guitar picture


Hard Rock Pin Las Vegas King of Clubs Guitar rare only 3 lines of info on back
$5.0
Hard Rock Pin Las Vegas King of Clubs Guitar rare only 3 lines of info on back picture


Hard Rock Pin Edmonton guitar pin
$5.0
Hard Rock Pin Edmonton guitar pin picture


Lladro Guitar Boy #4614 - Beautiful Piece of Lladro
$109.0
Lladro Guitar Boy #4614 - Beautiful Piece of Lladro picture