Your One-Stop Source For
Music Lyrics
Bass and Guitar Tabs
and More...
Music Lyrics Bass and Guitar Tabs

 

The Tabs Are Below

Learn To Read Tab
Chords Handbook
Corrections & Additions
Get Official Tab
Disturbed tabs @ 911Tabs

Band : Disturbed

Song : A Welcome Burden

Album : Dracula 2000 OST

Tabed : Mike Tomasson (hostile@goconnect.net)

Date : 26/3/01

 

 

KEY -

PM = PALM MUTED (dots indicate parts)

> = SLIDE TO

x = MUTE when seen alone strum 0 muted,

when seen after note, dont let ring

 

 

RIFF ONE

 

PART : A : B

B|------------------------------------------------------------|--------------|

G|------------------------------------------------------------|--------------|

D|------------------------------------------------------------|--------------|

A|------------------------------------------------------------|-5---7--5--7--|

E|--7-8-7------7-8-7---7-8-7------7-10-8-0-7-8-7------7-8-7---|-5---7--5--7--|

B|--------6-5--------6-------6-5-----------------6-5--------6-|-3---5--3--5--|

 

 

RIFF TWO

 

 

B|--------|

G|--------|

D|--------|

A|-2------| LET RING!

E|--------|

B|--------|

 

 

RIFF THREE

 

B|----3---|

G|--4---4-|

D|--------|

A|--------|

E|--------|

B|--------|

pm........

 

 

 

RIFF FOUR

 

PART : A : B

B|--------------------|---------------------|

G|--------------------|---------------------|

D|--------------------|---------------------|

A|--------------------|-7-10-7-9--9-10-7-9--|

E|--------------------|-7-10-7-9--9-10-7-9--|

B|-5-8-5-7--7-8-5-7---|-5--8-5-7--7--8-5-7--|

 

 

 

RIFF FIVE

 

PART : A : B : C

B|------------------------------------|--------|------|

G|------------------------------------|-9->-10-|------|

D|------------------------------------|-7->--8-|------|

A|-10->-9-9x--9x-10->-9-9x--9x-10->-9-|--------|-x-x--|

E|--8->-7-7x--7x--8->-7-7x--7x--8->-7-|--------|-x-x--|

B|------------------------------------|--------|------|

 

 

 

 

RIFF SIX

 

B|-----------------------------------------------|

G|-----------------------------------------------|

D|-----------------------------------------------|

A|-7-(7)-(7)-(7)-(7)-(7)---5-(5)-(5)-(5)-(5)-(5)-|

E|-7-(7)-(7)-(7)-(7)-(7)---5-(5)-(5)-(5)-(5)-(5)-|

B|-5-----------------------3---------------------|

 

 

RIFF SEVEN

 

B|--------------------|

G|--------------------|

D|---------10->-9-9-9-|

A|----------8->-7-7-7-|

E|-2-2-2-2------------|

B|-0-0-0-0------------|

pm......

 

 

OUTRO RIFF

 

B|------------|

G|------------|

D|------------|

A|------------|

E|--7-8-7-----|

B|--------6-5-|

 

 

 

STRUCTURE

 

RIFF ONE x 2 (second time play part B twice) 00:00

RIFF ONE x 2 (second time play part B twice) 00:16

RIFF TWO x 1 (bass solo) 00:32

RIFF THREE x 32 (last two times play unmuted) 00:43

RIFF FOUR x 8 (part A 4x & part B 4x) 01:06

RIFF ONE x 2 (second time play part B twice) 01:20

RIFF TWO x 1 (bass solo) 01:36

RIFF THREE x 32 (last two times play unmuted) 01:47

RIFF FOUR x 8 (part A 4x & part B 4x) 02:10

RIFF FIVE x 2 (2nd time play B instead of A) 02:24

RIFF FIVE x 2 (2nd time play B instead of A) 02:29

RIFF FIVE x 2 (2nd time play B instead of A) 02:35

RIFF FIVE x 2 (2nd time play B instead of A) 02:41

RIFF SIX x 1 (listen to song for timing) 02:46

RIFF FIVE x 2 (2nd time play B instead of A) 02:52

RIFF FIVE x 2 (2nd time play B instead of A) 02:58

RIFF SIX x 1 (listen to song for timing) 03:03

RIFF SEVEN x 8 03:09

OUTRO RIFF x 8 03:20

 

Return to my Disturbed tabs page

The Tablature is Copyright its respective owners.

Sign Up For My Newsletter
Subscribe | Unsubscribe

Site Map | Disclaimer | Privacy Policy | Media Kit | Submissions/Corrections

Website © 2000-2014 mattsmusicpage.com. All rights reserved.

Legal & DMCA: Matt's Music Page has been providing lyrics and tabs in a legal way, paying royalties each year to a few organizations. Then, all lyrics and tabs were removed from the site. Now, there's a new owner to the site, which purchased it August 26, 2014, and he is in negotiation to obtain licensing from BMI at the moment. If you have a specific DMCA request -- please do not hesitate to contact me via the contact button on top. I will do my very best to keep this site fully legal.

Get our toolbar!

 

Hard Rock Pin Las Vegas 4th of july red white and blue guitar
$5.0
Hard Rock Pin Las Vegas 4th of july red white and blue guitar picture


Hard Rock Pin Hollywood Fl Bell Girl with dice luggage and guitar
$5.0
Hard Rock Pin Hollywood Fl Bell Girl with dice luggage and guitar picture


Hard Rock Pin Las Vegas King of Clubs Guitar rare only 3 lines of info on back
$5.0
Hard Rock Pin Las Vegas King of Clubs Guitar rare only 3 lines of info on back picture


Hard Rock Pin Edmonton guitar pin
$5.0
Hard Rock Pin Edmonton guitar pin picture


Lladro Guitar Boy #4614 - Beautiful Piece of Lladro
$109.0
Lladro Guitar Boy #4614 - Beautiful Piece of Lladro picture