Your One-Stop Source For
Music Lyrics
Bass and Guitar Tabs
and More...
Music Lyrics Bass and Guitar Tabs

 

The Disturbed Guitar Tabs Are Below

Learn To Read Tab
Chords Handbook
Corrections & Additions
Get Official Tab
Disturbed tabs @ 911Tabs

Torn

Disturbed

Indestructible (2008)

 

Torn: written by David Draiman, Dan Donegan, Mike Wengren, and John Moyer

 

NOTE: There is no solo on my tab because the solo by chasef sounds great, so

you can use that one.

 

GTR I - Drop Db Tuning (eb,Bb,Gb,Db,Ab,Db)

GTR II - Drop Db Tuning (eb,Bb,Gb,Db,Ab,Db)

GTR III - Drop Db Tuning "Solo with Wah" (eb,Bb,Gb,Db,Ab,Db)

 

Intro

 

GTR I,II

eb|-------------------------------------|

Bb|-------------------------------------|

Gb|-------------------------------------|

Db|--4--2--4--2--4--5--2--4--2--4--4--5-|

Ab|--4--2--4--2--4--5--2--4--2--4--4--5-|

Db|--4--2--4--2--4--5--2--4--2--4--4--5-|

 

GTR I,II

eb|-------------------------------------|

Bb|-------------------------------------|

Gb|-------------------------------------|

Db|--4--2--4--2--4--5--2--4--2--4--7--5-|

Ab|--4--2--4--2--4--5--2--4--2--4--7--5-|

Db|--4--2--4--2--4--5--2--4--2--4--7--5-|

 

GTR I,II

eb|-------------------------------------|

Bb|-------------------------------------|

Gb|-------------------------------------|

Db|--4--2--4--2--4--5--2--4--2--4--4--5-|

Ab|--4--2--4--2--4--5--2--4--2--4--4--5-|

Db|--4--2--4--2--4--5--2--4--2--4--4--5-|

 

GTR I,II

eb|-------------------------------------|

Bb|-------------------------------------|

Gb|-------------------------------------|

Db|--4--2--4--2--4--5--2--4--2--4--7--5-|

Ab|--4--2--4--2--4--5--2--4--2--4--7--5-|

Db|--4--2--4--2--4--5--2--4--2--4--7--5-|

 

Verse

 

GTR I,II

eb|-------------------------------------|

Bb|-------------------------------------|

Gb|-------------------------------------|

Db|-------------------------------------|

Ab|-------------------------------------|

Db|--4--2--4--2--4--5--2--4--2--4--4--5-|

. . . . . . . . . . . .

 

GTR I,II

eb|-------------------------------------|

Bb|-------------------------------------|

Gb|-------------------------------------|

Db|-------------------------------------|

Ab|-------------------------------------|

Db|--4--2--4--2--4--5--2--4--2--4--7--5-|

. . . . . . . . . . . .

 

GTR I,II

eb|-------------------------------------|

Bb|-------------------------------------|

Gb|-------------------------------------|

Db|-------------------------------------|

Ab|-------------------------------------|

Db|--4--2--4--2--4--5--2--4--2--4--4--5-|

. . . . . . . . . . . .

 

GTR I,II

eb|-------------------------------------|

Bb|-------------------------------------|

Gb|-------------------------------------|

Db|-------------------------------------|

Ab|-------------------------------------|

Db|--4--2--4--2--4--5--2--4--2--4--7--5-|

. . . . . . . . . . . .

 

Verse 2

 

GTR I,II

eb|-------------------------------------|

Bb|-------------------------------------|

Gb|-------------------------------------|

Db|--4--2--4--2--4--5--2--4--2--4--4--5-|

Ab|--4--2--4--2--4--5--2--4--2--4--4--5-|

Db|--4--2--4--2--4--5--2--4--2--4--4--5-|

 

GTR I,II

eb|-------------------------------------|

Bb|-------------------------------------|

Gb|-------------------------------------|

Db|--4--2--4--2--4--5--2--4--2--4--7--5-|

Ab|--4--2--4--2--4--5--2--4--2--4--7--5-|

Db|--4--2--4--2--4--5--2--4--2--4--7--5-|

 

GTR I,II

eb|-------------------------------------|

Bb|-------------------------------------|

Gb|-------------------------------------|

Db|--4--2--4--2--4--5--2--4--2--4--4--5-|

Ab|--4--2--4--2--4--5--2--4--2--4--4--5-|

Db|--4--2--4--2--4--5--2--4--2--4--4--5-|

 

GTR I,II

eb|-------------------------------------|

Bb|-------------------------------------|

Gb|-------------------------------------|

Db|--4--2--4--2--4--5--2--4--2--4--7--5-|

Ab|--4--2--4--2--4--5--2--4--2--4--7--5-|

Db|--4--2--4--2--4--5--2--4--2--4--7--5-|

 

Pre Chorus

 

GTR I

eb|-------------------------------------------------|

Bb|-------------------------------------------------|

Gb|-------------------------------------------------|

Db|--9--9--9--9--9--9--9--9--9--9--9--9--9--9--9--9-|

Ab|--9--9--9--9--9--9--9--9--9--9--9--9--9--9--9--9-|

Db|--9--9--9--9--9--9--9--9--9--9--9--9--9--9--9--9-|

|

|GTR II

eb|-------------------------------------------------|

Bb|-------------------------------------------------|

Gb|-12-12-12-12-12-12-11-11-11-11--7--7--7-11-11-11-|

Db|--x--x--x--x--x--x--x--x--x--x--x--x--x--x--x--x-|

Ab|-10-10-10-10-10-10--9--9--9--9--5--5--5--9--9--9-|

Db|-------------------------------------------------|

 

GTR I

eb|-------------------------------------------------|

Bb|-------------------------------------------------|

Gb|--6--6--6--6--6--6--6--6--6----------------------|

Db|--6--6--6--6--6--6--6--6--6--4--4--4-----2--2--2-|

Ab|--4--4--4--4--4--4--4--4--4--4--4--4-----2--2--2-|

Db|-----------------------------4--4--4-----2--2--2-|

|

|GTR II

eb|-------------------------------------------------|

Bb|-------------------------------------------------|

Gb|-12-12-12-12-12-12-11-11-11----------------------|

Db|--x--x--x--x--x--x--x--x--x--4--4--4-----2--2--2-|

Ab|-10-10-10-10-10-10--9--9--9--4--4--4-----2--2--2-|

Db|-----------------------------4--4--4-----2--2--2-|

 

GTR I

eb|-------------------------------------------------|

Bb|-------------------------------------------------|

Gb|-------------------------------------------------|

Db|--9--9--9--9--9--9--9--9--9--9--9--9--9--9--9--9-|

Ab|--9--9--9--9--9--9--9--9--9--9--9--9--9--9--9--9-|

Db|--9--9--9--9--9--9--9--9--9--9--9--9--9--9--9--9-|

|

|GTR II

eb|-------------------------------------------------|

Bb|-------------------------------------------------|

Gb|-12-12-12-12-12-12-11-11-11-11--7--7--7-11-11-11-|

Db|--x--x--x--x--x--x--x--x--x--x--x--x--x--x--x--x-|

Ab|-10-10-10-10-10-10--9--9--9--9--5--5--5--9--9--9-|

Db|-------------------------------------------------|

 

GTR I

eb|-------------------------------------------------|

Bb|-------------------------------------------------|

Gb|--6--6--6--6--6--6--6--6--6----------------------|

Db|--6--6--6--6--6--6--6--6--6--4--4--4-----5--5--5-|

Ab|--4--4--4--4--4--4--4--4--4--4--4--4-----5--5--5-|

Db|-----------------------------4--4--4-----5--5--5-|

|

|GTR II

eb|-------------------------------------------------|

Bb|-------------------------------------------------|

Gb|-12-12-12-14-14-14-11-11-11----------------------|

Db|--x--x--x--x--x--x--x--x--x--4--4--4-----5--5--5-|

Ab|-10-10-10-12-12-12--9--9--9--4--4--4-----5--5--5-|

Db|-----------------------------4--4--4-----5--5--5-|

 

Pre Chorus 2

 

GTR I,II

eb|-------------------------------------------------|

Bb|-------------------------------------------------|

Gb|-------------------------------------------------|

Db|--------------------------2--2--2--2--2--2--2--2-|

Ab|--2--2--2--2--2--2--2--2--2--2--2--2--2--2--2--2-|

Db|--2--2--2--2--2--2--2--2--2--2--2--2--2--2--2--2-|

. . . . . . . .

 

GTR I,II

eb|-------------------------------------------------|

Bb|-------------------------------------------------|

Gb|-------------------------------------------------|

Db|--4--4--4--4--4--4--4--4--4--4--4--4--4--4--4--4-|

Ab|--4--4--4--4--4--4--4--4--4--4--4--4--4--4--4--4-|

Db|--4--4--4--4--4--4--4--4--4--4--4--4--4--4--4--4-|

 

Chorus

 

GTR I,II

eb|-------------------------------------------------|

Bb|-------------------------------------------------|

Gb|--4--4--4--4--4--------------------------------4-|

Db|--4--4--4--4--4--0--0--0--0--2--2--2--2--5--4--4-|

Ab|--2--2--2--2--2--0--0--0--0--2--2--2--2--5--4--2-|

Db|-----------------0--0--0--0--2--2--2--2--5--4----|

 

GTR I,II

eb|-------------------------------------------------|

Bb|-------------------------------------------------|

Gb|-----4--4--4--4--------------------------------4-|

Db|-----4--4--4--4--0--0--0--0--2--2--2--2--0--0--4-|

Ab|-----2--2--2--2--0--0--0--0--2--2--2--2--0--0--2-|

Db|-----------------0--0--0--0--2--2--2--2--0--0----|

. .

 

GTR I,II

eb|-------------------------------------------------|

Bb|-------------------------------------------------|

Gb|-----4--4--4--4----------------------------------|

Db|-----4--4--4--4--0--0--0--0--2--2--2--2--5--4--5-|

Ab|-----2--2--2--2--0--0--0--0--2--2--2--2--5--4--5-|

Db|-----------------0--0--0--0--2--2--2--2--5--4--5-|

 

GTR I,II

eb|-------------------------------------------------|

Bb|-------------------------------------------------|

Gb|-------------------------------------------------|

Db|-----5--5--5--5--5--5--5-----2--2--2-----2--2--2-|

Ab|-----5--5--5--5--5--5--5-----2--2--2-----2--2--2-|

Db|-----5--5--5--5--5--5--5-----2--2--2-----2--2--2-|

 

Post Chorus

 

GTR I

eb|-------------------------------------|

Bb|-------------------------------------|

Gb|-------------------------------------|

Db|-------------------------------------|

Ab|-------------------------------------|

Db|--4--2--4--2--4--5--2--4--2--4--4--5-|

. . . . . . . . . . . .

 

GTR I,II

eb|-------------------------------------|

Bb|-------------------------------------|

Gb|-------------------------------------|

Db|-------------------------------------|

Ab|-------------------------------------|

Db|--4--2--4--2--4--5--2--4--2--4--7--5-|

. . . . . . . . . . . .

 

Verse 3

 

GTR I

eb|-------------------------------------|

Bb|-------------------------------------|

Gb|-------------------------------------|

Db|--4--4-----------------4-----4--4----|

Ab|--4--4-----------------4-----4--4----|

Db|--4--4-----------------4-----4--4----|

|

|GTR II

eb|-------------------------------------|

Bb|-------------------------------------|

Gb|-------------------------------------|

Db|--4--2--4--2--4--5--2--4--2--4--4--5-|

Ab|-------------------------------------|

Db|-------------------------------------|

 

GTR I

eb|-------------------------------------|

Bb|-------------------------------------|

Gb|-------------------------------------|

Db|--4--4-----------------4-----4--4----|

Ab|--4--4-----------------4-----4--4----|

Db|--4--4-----------------4-----4--4----|

|

|GTR II

eb|-------------------------------------|

Bb|-------------------------------------|

Gb|-------------------------------------|

Db|--4--2--4--2--4--5--2--4--2--4--7--5-|

Ab|-------------------------------------|

Db|-------------------------------------|

 

GTR I

eb|-------------------------------------|

Bb|-------------------------------------|

Gb|-------------------------------------|

Db|--4--4-----------------4-----4--4----|

Ab|--4--4-----------------4-----4--4----|

Db|--4--4-----------------4-----4--4----|

|

|GTR II

eb|-------------------------------------|

Bb|-------------------------------------|

Gb|-------------------------------------|

Db|--4--2--4--2--4--5--2--4--2--4--4--5-|

Ab|-------------------------------------|

Db|-------------------------------------|

 

GTR I

eb|-------------------------------------|

Bb|-------------------------------------|

Gb|-------------------------------------|

Db|--4--4-----------------4-----4--4----|

Ab|--4--4-----------------4-----4--4----|

Db|--4--4-----------------4-----4--4----|

|

|GTR II

eb|-------------------------------------|

Bb|-------------------------------------|

Gb|-------------------------------------|

Db|--4--2--4--2--4--5--2--4--2--4--7--5-|

Ab|-------------------------------------|

Db|-------------------------------------|

 

Verse 4

 

GTR I,II

eb|-------------------------------------|

Bb|-------------------------------------|

Gb|-------------------------------------|

Db|--------------------------------4--5-|

Ab|--4--2--4--2--4--5--2--4--2--4--4--5-|

Db|--4--2--4--2--4--5--2--4--2--4--4--5-|

. . . . . . . . . .

 

GTR I,II

eb|-------------------------------------|

Bb|-------------------------------------|

Gb|-------------------------------------|

Db|--4--2--4--2--4--5--2--4--2--4--7--5-|

Ab|--4--2--4--2--4--5--2--4--2--4--7--5-|

Db|--4--2--4--2--4--5--2--4--2--4--7--5-|

 

GTR I,II

eb|-------------------------------------|

Bb|-------------------------------------|

Gb|-------------------------------------|

Db|--4--2--4--2--4--5--2--4--2--4--4--5-|

Ab|--4--2--4--2--4--5--2--4--2--4--4--5-|

Db|--4--2--4--2--4--5--2--4--2--4--4--5-|

 

GTR I

eb|-------------------------------------|

Bb|-------------------------------------|

Gb|-------------------------------------|

Db|--4--2--4--2--4--5--2----------------|

Ab|--4--2--4--2--4--5--2----------------|

Db|--4--2--4--2--4--5--2----------------|

|

|GTR II

eb|-------------------------------------|

Bb|-------------------------------------|

Gb|-------------------------------------|

Db|--4--2--4--2--4--5--2--4--2--4--7--5-|

Ab|--4--2--4--2--4--5--2--4--2--4--7--5-|

Db|--4--2--4--2--4--5--2--4--2--4--7--5-|

 

Pre Chorus

 

GTR I

eb|-------------------------------------------------|

Bb|-------------------------------------------------|

Gb|-------------------------------------------------|

Db|--9--9--9--9--9--9--9--9--9--9--9--9--9--9--9--9-|

Ab|--9--9--9--9--9--9--9--9--9--9--9--9--9--9--9--9-|

Db|--9--9--9--9--9--9--9--9--9--9--9--9--9--9--9--9-|

|

|GTR II

eb|-------------------------------------------------|

Bb|-------------------------------------------------|

Gb|-12-12-12-12-12-12-11-11-11-11--7--7--7-11-11-11-|

Db|--x--x--x--x--x--x--x--x--x--x--x--x--x--x--x--x-|

Ab|-10-10-10-10-10-10--9--9--9--9--5--5--5--9--9--9-|

Db|-------------------------------------------------|

 

GTR I

eb|-------------------------------------------------|

Bb|-------------------------------------------------|

Gb|--6--6--6--6--6--6--6--6--6----------------------|

Db|--6--6--6--6--6--6--6--6--6--4--4--4-----2--2--2-|

Ab|--4--4--4--4--4--4--4--4--4--4--4--4-----2--2--2-|

Db|-----------------------------4--4--4-----2--2--2-|

|

|GTR II

eb|-------------------------------------------------|

Bb|-------------------------------------------------|

Gb|-12-12-12-12-12-12-11-11-11----------------------|

Db|--x--x--x--x--x--x--x--x--x--4--4--4-----2--2--2-|

Ab|-10-10-10-10-10-10--9--9--9--4--4--4-----2--2--2-|

Db|-----------------------------4--4--4-----2--2--2-|

 

GTR I

eb|-------------------------------------------------|

Bb|-------------------------------------------------|

Gb|-------------------------------------------------|

Db|--9--9--9--9--9--9--9--9--9--9--9--9--9--9--9--9-|

Ab|--9--9--9--9--9--9--9--9--9--9--9--9--9--9--9--9-|

Db|--9--9--9--9--9--9--9--9--9--9--9--9--9--9--9--9-|

|

|GTR II

eb|-------------------------------------------------|

Bb|-------------------------------------------------|

Gb|-12-12-12-12-12-12-11-11-11-11--7--7--7-11-11-11-|

Db|--x--x--x--x--x--x--x--x--x--x--x--x--x--x--x--x-|

Ab|-10-10-10-10-10-10--9--9--9--9--5--5--5--9--9--9-|

Db|-------------------------------------------------|

 

GTR I

eb|-------------------------------------------------|

Bb|-------------------------------------------------|

Gb|--6--6--6--6--6--6--6--6--6----------------------|

Db|--6--6--6--6--6--6--6--6--6--4--4--4-----5--5--5-|

Ab|--4--4--4--4--4--4--4--4--4--4--4--4-----5--5--5-|

Db|-----------------------------4--4--4-----5--5--5-|

|

|GTR II

eb|-------------------------------------------------|

Bb|-------------------------------------------------|

Gb|-12-12-12-14-14-14-11-11-11----------------------|

Db|--x--x--x--x--x--x--x--x--x--4--4--4-----5--5--5-|

Ab|-10-10-10-12-12-12--9--9--9--4--4--4-----5--5--5-|

Db|-----------------------------4--4--4-----5--5--5-|

 

Pre Chorus 2

 

GTR I,II

eb|-------------------------------------------------|

Bb|-------------------------------------------------|

Gb|-------------------------------------------------|

Db|--------------------------2--2--2--2--2--2--2--2-|

Ab|--2--2--2--2--2--2--2--2--2--2--2--2--2--2--2--2-|

Db|--2--2--2--2--2--2--2--2--2--2--2--2--2--2--2--2-|

. . . . . . . .

 

GTR I,II

eb|-------------------------------------------------|

Bb|-------------------------------------------------|

Gb|-------------------------------------------------|

Db|--4--4--4--4--4--4--4--4--4--4--4--4--4--4--4--4-|

Ab|--4--4--4--4--4--4--4--4--4--4--4--4--4--4--4--4-|

Db|--4--4--4--4--4--4--4--4--4--4--4--4--4--4--4--4-|

 

Chorus

 

GTR I,II

eb|-------------------------------------------------|

Bb|-------------------------------------------------|

Gb|--4--4--4--4--4--------------------------------4-|

Db|--4--4--4--4--4--0--0--0--0--2--2--2--2--5--4--4-|

Ab|--2--2--2--2--2--0--0--0--0--2--2--2--2--5--4--2-|

Db|-----------------0--0--0--0--2--2--2--2--5--4----|

 

GTR I,II

eb|-------------------------------------------------|

Bb|-------------------------------------------------|

Gb|-----4--4--4--4--------------------------------4-|

Db|-----4--4--4--4--0--0--0--0--2--2--2--2--0--0--4-|

Ab|-----2--2--2--2--0--0--0--0--2--2--2--2--0--0--2-|

Db|-----------------0--0--0--0--2--2--2--2--0--0----|

. .

 

GTR I,II

eb|-------------------------------------------------|

Bb|-------------------------------------------------|

Gb|-----4--4--4--4----------------------------------|

Db|-----4--4--4--4--0--0--0--0--2--2--2--2--5--4--5-|

Ab|-----2--2--2--2--0--0--0--0--2--2--2--2--5--4--5-|

Db|-----------------0--0--0--0--2--2--2--2--5--4--5-|

 

GTR I,II

eb|-------------------------------------------------|

Bb|-------------------------------------------------|

Gb|-------------------------------------------------|

Db|-----5--5--5--5--5--5--5-----2--2--2-----2--2--2-|

Ab|-----5--5--5--5--5--5--5-----2--2--2-----2--2--2-|

Db|-----5--5--5--5--5--5--5-----2--2--2-----2--2--2-|

 

Bridge

 

GTR I

eb|-------------------------------------------------|

Bb|-------------------------------------------------|

Gb|--9--9--9-11-11-11--6--6--6--9--9--9-11-11--6--6-|

Db|--x--x--x--x--x--x--x--x--x--x--x--x--x--x--x--x-|

Ab|--7--7--7--9--9--9--4--4--4--7--7--7--9--9--4--4-|

Db|-------------------------------------------------|

|

|GTR II

eb|-------------------------------------------------|

Bb|-------------------------------------------------|

Gb|-------------------------------------------------|

Db|--8--8--8--8--8--8--8--8--6--6--6--6--6--6--6--6-|

Ab|--6--6--6--6--6--6--6--6--4--4--4--3--3--3--4--4-|

Db|-------------------------------------------------|

 

GTR I

eb|-------------------------------------------------|

Bb|-------------------------------------------------|

Gb|--9--9--9-11-11-11--6--6--6--9--9--9-11-11-12-12-|

Db|--x--x--x--x--x--x--x--x--x--x--x--x--x--x--x--x-|

Ab|--7--7--7--9--9--9--4--4--4--7--7--7--9--9-10-10-|

Db|-------------------------------------------------|

|

|GTR II

eb|-------------------------------------------------|

Bb|-------------------------------------------------|

Gb|-------------------------------------------------|

Db|--8--8--8--8--8--8--8--8--6--6--6--6--6--6--6--6-|

Ab|--6--6--6--6--6--6--6--6--4--4--4--3--3--3--4--4-|

Db|-------------------------------------------------|

 

Guitar Solo

 

GTR I

eb|-------------------------------------------------|

Bb|-------------------------------------------------|

Gb|--9--9--9-11-11-11--6--6--6--9--9--9-11-11--6--6-|

Db|--x--x--x--x--x--x--x--x--x--x--x--x--x--x--x--x-|

Ab|--7--7--7--9--9--9--4--4--4--7--7--7--9--9--4--4-|

Db|-------------------------------------------------|

|

|GTR II

eb|-------------------------------------------------|

Bb|-------------------------------------------------|

Gb|-------------------------------------------------|

Db|--8--8--8--8--8--8--8--8--6--6--6--6--6--6--6--6-|

Ab|--6--6--6--6--6--6--6--6--4--4--4--3--3--3--4--4-|

Db|-------------------------------------------------|

|

|GTR III

eb|-------------------------------------------------|

Bb|-------------------------------------------------|

Gb|-------------------------------------------------|

Db|-------------------------------------------------|

Ab|-------------------------------------------------|

Db|-------------------------------------------------|

 

GTR I

eb|-------------------------------------------------|

Bb|-------------------------------------------------|

Gb|--9--9--9-11-11-11--6--6--6--9--9--9-11-11-12-12-|

Db|--x--x--x--x--x--x--x--x--x--x--x--x--x--x--x--x-|

Ab|--7--7--7--9--9--9--4--4--4--7--7--7--9--9-10-10-|

Db|-------------------------------------------------|

|

|GTR II

eb|-------------------------------------------------|

Bb|-------------------------------------------------|

Gb|-------------------------------------------------|

Db|--8--8--8--8--8--8--8--8--6--6--6--6--6--6--6--6-|

Ab|--6--6--6--6--6--6--6--6--4--4--4--3--3--3--4--4-|

Db|-------------------------------------------------|

|

|GTR III

eb|-------------------------------------------------|

Bb|-------------------------------------------------|

Gb|-------------------------------------------------|

Db|-------------------------------------------------|

Ab|-------------------------------------------------|

Db|-------------------------------------------------|

 

Entire 2 Bars 5 times

 

Post Solo

 

GTR I,II

eb|-------------------------------------|

Bb|-------------------------------------|

Gb|-------------------------------------|

Db|--4--2--4--2--4--5--2--4--2--4--4--5-|

Ab|--4--2--4--2--4--5--2--4--2--4--4--5-|

Db|--4--2--4--2--4--5--2--4--2--4--4--5-|

|

|GTR III

eb|-------------------------------------|

Bb|-------------------------------------|

Gb|-------------------------------------|

Db|-------------------------------------|

Ab|-------------------------------------|

Db|-------------------------------------|

 

GTR I,II

eb|-------------------------------------|

Bb|-------------------------------------|

Gb|-------------------------------------|

Db|--4--2--4--2--4--5--2--4-------------|

Ab|--4--2--4--2--4--5--2--4-------------|

Db|--4--2--4--2--4--5--2--4-------------|

|

|GTR III

eb|-------------------------------------|

Bb|-------------------------------------|

Gb|-------------------------------------|

Db|-------------------------------------|

Ab|-------------------------------------|

Db|-------------------------------------|

 

Pre Chorus

 

GTR I

eb|-------------------------------------------------|

Bb|-------------------------------------------------|

Gb|-------------------------------------------------|

Db|--9--9--9--9--9--9--9--9--9--9--9--9--9--9--9--9-|

Ab|--9--9--9--9--9--9--9--9--9--9--9--9--9--9--9--9-|

Db|--9--9--9--9--9--9--9--9--9--9--9--9--9--9--9--9-|

|

|GTR II

eb|-------------------------------------------------|

Bb|-------------------------------------------------|

Gb|-12-12-12-12-12-12-11-11-11-11--7--7--7-11-11-11-|

Db|--x--x--x--x--x--x--x--x--x--x--x--x--x--x--x--x-|

Ab|-10-10-10-10-10-10--9--9--9--9--5--5--5--9--9--9-|

Db|-------------------------------------------------|

 

GTR I

eb|-------------------------------------------------|

Bb|-------------------------------------------------|

Gb|--6--6--6--6--6--6--6--6--6----------------------|

Db|--6--6--6--6--6--6--6--6--6--4--4--4-----2--2--2-|

Ab|--4--4--4--4--4--4--4--4--4--4--4--4-----2--2--2-|

Db|-----------------------------4--4--4-----2--2--2-|

|

|GTR II

eb|-------------------------------------------------|

Bb|-------------------------------------------------|

Gb|-12-12-12-12-12-12-11-11-11----------------------|

Db|--x--x--x--x--x--x--x--x--x--4--4--4-----2--2--2-|

Ab|-10-10-10-10-10-10--9--9--9--4--4--4-----2--2--2-|

Db|-----------------------------4--4--4-----2--2--2-|

 

GTR I

eb|-------------------------------------------------|

Bb|-------------------------------------------------|

Gb|-------------------------------------------------|

Db|--9--9--9--9--9--9--9--9--9--9--9--9--9--9--9--9-|

Ab|--9--9--9--9--9--9--9--9--9--9--9--9--9--9--9--9-|

Db|--9--9--9--9--9--9--9--9--9--9--9--9--9--9--9--9-|

|

|GTR II

eb|-------------------------------------------------|

Bb|-------------------------------------------------|

Gb|-12-12-12-12-12-12-11-11-11-11--7--7--7-11-11-11-|

Db|--x--x--x--x--x--x--x--x--x--x--x--x--x--x--x--x-|

Ab|-10-10-10-10-10-10--9--9--9--9--5--5--5--9--9--9-|

Db|-------------------------------------------------|

 

GTR I

eb|-------------------------------------------------|

Bb|-------------------------------------------------|

Gb|--6--6--6--6--6--6--6--6--6----------------------|

Db|--6--6--6--6--6--6--6--6--6--4--4--4-----5--5--5-|

Ab|--4--4--4--4--4--4--4--4--4--4--4--4-----5--5--5-|

Db|-----------------------------4--4--4-----5--5--5-|

|

|GTR II

eb|-------------------------------------------------|

Bb|-------------------------------------------------|

Gb|-12-12-12-14-14-14-11-11-11----------------------|

Db|--x--x--x--x--x--x--x--x--x--4--4--4-----5--5--5-|

Ab|-10-10-10-12-12-12--9--9--9--4--4--4-----5--5--5-|

Db|-----------------------------4--4--4-----5--5--5-|

 

Pre Chorus 2

 

GTR I,II

eb|-------------------------------------------------|

Bb|-------------------------------------------------|

Gb|-------------------------------------------------|

Db|--------------------------2--2--2--2--2--2--2--2-|

Ab|--2--2--2--2--2--2--2--2--2--2--2--2--2--2--2--2-|

Db|--2--2--2--2--2--2--2--2--2--2--2--2--2--2--2--2-|

. . . . . . . .

 

GTR I,II

eb|-------------------------------------------------|

Bb|-------------------------------------------------|

Gb|-------------------------------------------------|

Db|--4--4--4--4--4--4--4--4--4--4--4--4--4--4--4--4-|

Ab|--4--4--4--4--4--4--4--4--4--4--4--4--4--4--4--4-|

Db|--4--4--4--4--4--4--4--4--4--4--4--4--4--4--4--4-|

 

Pre Chorus

 

GTR I

eb|-------------------------------------------------|

Bb|-------------------------------------------------|

Gb|-------------------------------------------------|

Db|--9--9--9--9--9--9--9--9--9--9--9--9--9--9--9--9-|

Ab|--9--9--9--9--9--9--9--9--9--9--9--9--9--9--9--9-|

Db|--9--9--9--9--9--9--9--9--9--9--9--9--9--9--9--9-|

|

|GTR II

eb|-------------------------------------------------|

Bb|-------------------------------------------------|

Gb|-12-12-12-12-12-12-11-11-11-11--7--7--7-11-11-11-|

Db|--x--x--x--x--x--x--x--x--x--x--x--x--x--x--x--x-|

Ab|-10-10-10-10-10-10--9--9--9--9--5--5--5--9--9--9-|

Db|-------------------------------------------------|

 

GTR I

eb|-------------------------------------------------|

Bb|-------------------------------------------------|

Gb|--6--6--6--6--6--6--6--6--6----------------------|

Db|--6--6--6--6--6--6--6--6--6--4--4--4-----2--2--2-|

Ab|--4--4--4--4--4--4--4--4--4--4--4--4-----2--2--2-|

Db|-----------------------------4--4--4-----2--2--2-|

|

|GTR II

eb|-------------------------------------------------|

Bb|-------------------------------------------------|

Gb|-12-12-12-12-12-12-11-11-11----------------------|

Db|--x--x--x--x--x--x--x--x--x--4--4--4-----2--2--2-|

Ab|-10-10-10-10-10-10--9--9--9--4--4--4-----2--2--2-|

Db|-----------------------------4--4--4-----2--2--2-|

 

GTR I

eb|-------------------------------------------------|

Bb|-------------------------------------------------|

Gb|-------------------------------------------------|

Db|--9--9--9--9--9--9--9--9--9--9--9--9--9--9--9--9-|

Ab|--9--9--9--9--9--9--9--9--9--9--9--9--9--9--9--9-|

Db|--9--9--9--9--9--9--9--9--9--9--9--9--9--9--9--9-|

|

|GTR II

eb|-------------------------------------------------|

Bb|-------------------------------------------------|

Gb|-12-12-12-12-12-12-11-11-11-11--7--7--7-11-11-11-|

Db|--x--x--x--x--x--x--x--x--x--x--x--x--x--x--x--x-|

Ab|-10-10-10-10-10-10--9--9--9--9--5--5--5--9--9--9-|

Db|-------------------------------------------------|

 

GTR I

eb|-------------------------------------------------|

Bb|-------------------------------------------------|

Gb|--6--6--6--6--6--6--6--6--6----------------------|

Db|--6--6--6--6--6--6--6--6--6--4--4--4-----5--5--5-|

Ab|--4--4--4--4--4--4--4--4--4--4--4--4-----5--5--5-|

Db|-----------------------------4--4--4-----5--5--5-|

|

|GTR II

eb|-------------------------------------------------|

Bb|-------------------------------------------------|

Gb|-12-12-12-14-14-14-11-11-11----------------------|

Db|--x--x--x--x--x--x--x--x--x--4--4--4-----5--5--5-|

Ab|-10-10-10-12-12-12--9--9--9--4--4--4-----5--5--5-|

Db|-----------------------------4--4--4-----5--5--5-|

 

Pre Chorus 2

 

GTR I,II

eb|-------------------------------------------------|

Bb|-------------------------------------------------|

Gb|-------------------------------------------------|

Db|--------------------------2--2--2--2--2--2--2--2-|

Ab|--2--2--2--2--2--2--2--2--2--2--2--2--2--2--2--2-|

Db|--2--2--2--2--2--2--2--2--2--2--2--2--2--2--2--2-|

. . . . . . . .

 

GTR I,II

eb|-------------------------------------------------|

Bb|-------------------------------------------------|

Gb|-------------------------------------------------|

Db|--4--4--4--4--4--4--4--4--4--4--4--4--4--4--4--4-|

Ab|--4--4--4--4--4--4--4--4--4--4--4--4--4--4--4--4-|

Db|--4--4--4--4--4--4--4--4--4--4--4--4--4--4--4--4-|

 

Chorus

 

GTR I,II

eb|-------------------------------------------------|

Bb|-------------------------------------------------|

Gb|--4--4--4--4--4--------------------------------4-|

Db|--4--4--4--4--4--0--0--0--0--2--2--2--2--5--4--4-|

Ab|--2--2--2--2--2--0--0--0--0--2--2--2--2--5--4--2-|

Db|-----------------0--0--0--0--2--2--2--2--5--4----|

 

GTR I,II

eb|-------------------------------------------------|

Bb|-------------------------------------------------|

Gb|-----4--4--4--4--------------------------------4-|

Db|-----4--4--4--4--0--0--0--0--2--2--2--2--0--0--4-|

Ab|-----2--2--2--2--0--0--0--0--2--2--2--2--0--0--2-|

Db|-----------------0--0--0--0--2--2--2--2--0--0----|

. .

 

GTR I,II

eb|-------------------------------------------------|

Bb|-------------------------------------------------|

Gb|-----4--4--4--4----------------------------------|

Db|-----4--4--4--4--0--0--0--0--2--2--2--2--5--4--5-|

Ab|-----2--2--2--2--0--0--0--0--2--2--2--2--5--4--5-|

Db|-----------------0--0--0--0--2--2--2--2--5--4--5-|

 

GTR I,II

eb|-------------------------------------------------|

Bb|-------------------------------------------------|

Gb|-------------------------------------------------|

Db|-----5--5--5--5--5--5--5-----2--2--2-----2--2--2-|

Ab|-----5--5--5--5--5--5--5-----2--2--2-----2--2--2-|

Db|-----5--5--5--5--5--5--5-----2--2--2-----2--2--2-|

 

Outro

 

GTR I,II

eb|-------------------------------------|

Bb|-------------------------------------|

Gb|-------------------------------------|

Db|--4--2--4--2--4--5--2--4--2--4--4--5-|

Ab|--4--2--4--2--4--5--2--4--2--4--4--5-|

Db|--4--2--4--2--4--5--2--4--2--4--4--5-|

 

GTR I,II

eb|-------------------------------------|

Bb|-------------------------------------|

Gb|-------------------------------------|

Db|--4--2--4--2--4--5--2--4--2--4--4--5-|

Ab|--4--2--4--2--4--5--2--4--2--4--4--5-|

Db|--4--2--4--2--4--5--2--4--2--4--4--5-|

 

GTR I,II

eb|-------------------------------------|

Bb|-------------------------------------|

Gb|-------------------------------------|

Db|--4--2--4--2--4--5--2--4--2--4--4--5-|

Ab|--4--2--4--2--4--5--2--4--2--4--4--5-|

Db|--4--2--4--2--4--5--2--4--2--4--4--5-|

 

GTR I,II

eb|-------------------------------------|

Bb|-------------------------------------|

Gb|-------------------------------------|

Db|--4--2--4--2--4--5--2--4--2--4--4--5-|

Ab|--4--2--4--2--4--5--2--4--2--4--4--5-|

Db|--4--2--4--2--4--5--2--4--2--4--4--5-|

 

 

| b bend

| r release bend

|trp triplet

|PH. pinch harmonic

|fbk feedback

| . palm-mute

| / slide up

| \ slide down

| h hammer-on

| p pull-off

| ~ vibrato

| + harmonic

| x Mute note

===============================================================================

Return to my Disturbed Guitar Tabs page

The Disturbed Guitar Tablature is Copyright its respective owners.

Sign Up For My Newsletter
Subscribe | Unsubscribe

Site Map | Disclaimer | Privacy Policy | Media Kit | Submissions/Corrections

Website © 2000-2014 mattsmusicpage.com. All rights reserved.

Legal & DMCA: Matt's Music Page has been providing lyrics and tabs in a legal way, paying royalties each year to a few organizations. Then, all lyrics and tabs were removed from the site. Now, there's a new owner to the site, which purchased it August 26, 2014, and he is in negotiation to obtain licensing from BMI at the moment. If you have a specific DMCA request -- please do not hesitate to contact me via the contact button on top. I will do my very best to keep this site fully legal.

Get our toolbar!