Your One-Stop Source For
Music Lyrics
Bass and Guitar Tabs
and More...
Music Lyrics Bass and Guitar Tabs

 

The Disturbed Bass Tabs Are Below

Learn To Read Tab
Chords Handbook
Corrections & Additions
Get Official Tab
Disturbed tabs @ 911Tabs

Intro/Riff 1:

 

F|------------------------------------------------|

C|------------------------------------------------|

G|------------------------------------------------| x6

C|-5-3-5-3-5-6-3-5-3-5-5-6-5-3-5-3-5-6-3-5-3-5-8-6|

 

Riff 2:

 

F|---------------------------------------------------------|

C|---------------------------------------------------------|

G|---------------------------------------------------------|

C|-10--10-10--10--10-10--10-10--10-0--0-0-0-0--6-6-6--5-5-5|

 

F|---------------------------------------------------------|

C|---------------------------------------------------------|

G|---------------------------------------------------------|

C|-10--10-10--10--10-10--10-10--10-0--0-0-0-0--6-6-6--8-8-8|

 

F|-----------------| F|---------------------------------|

C|-----------------| x2 then C|---------------------------------|

G|-----------------| G|---------------------------------|

C|-3-3-3-3-3-3-3-3-| C|-5-5-5-5-5-5-5-5-5-8-6-5-6-5-3-1-|

 

Chorus:

 

F|----------------------------------------------------------|

C|----------------------------------------------------------|

G|-3--3-3-3---------------------3--3-3-3--------------------|

C|----------1-1-1-3-3-3-3-3-6-5----------1-1-1-3-3-3-3-3-3-3|

 

F|------------------------------------------------------------|

C|------------------------------------------------------------|

G|-3--3-3-3---------------------------------------------------|

C|----------1-1-1-3-3-3-3-3-6-5-6--6-6-6-6-6-6-6--3-3-3--3-3-3|

 

Pause, then half intro riff, then:

 

Riff 3:

 

F|------------------------------------------------------------|

C|------------------------------------------------------------|

G|------------------------------------------------------------|

C|-5-5----5--5-5--5-5----5--5-5--5-5----5--5-5--5-5----5--5-5-|

 

Main riff x2

Riff 2

Chorus

 

F|---------|

C|---------|

G|---------|

C|-5-------| <---hold note, rest, then:

 

Solo riff (please note the slight variations at the end, it's not all the same.)

 

F|-----------------------------------------------------|

C|-----------------------------------------------------|

G|-----------------------------------------------------|

C|-8--8-8--8--8-8--8-10--10-8--8-8--8--8-8-8-12-10-8-7-|

 

F|-------------------------------------------------|

C|-------------------------------------------------|

G|-------------------------------------------------|

C|-5--5-5--5--5-5--5-3--3-5--5-5--5--5-5-5-5-3-5-7-|

 

F|------------------------------------------------------|

C|------------------------------------------------------|

G|------------------------------------------------------|

C|-8--8-8--8--8-8--8-10--10-8--8-8--8--8-10-12-10-8-7-6-|

 

F|-------------------------------------------------|

C|-------------------------------------------------|

G|-------------------------------------------------|

C|-5--5-5--5--5-5--5-3--3-5--5-5--5--5-5-5-5-3-5-7-|

 

F|------------------------------------------------------------|

C|------------------------------------------------------------|

G|------------------------------------------------------------|

C|-8--8-8--8--8-8--8-10--10-8-8-8-10-10-10-8-8-8-7-7-7-8-7-5-3|

 

F|----------------------------------------|

C|----------------------------------------|

G|----------------------------------------| REST, then:

C|-5-3-5-3-5-6-3-5-3-5-5-6-5-3-5-3-5-6-3-5|

 

Riff 2 x2

Chorus one more time and then finally:

 

F|-------------------------|

C|-------------------------|

G|-------------------------| x4

C|-5-3-5-3-5-6-3-5-3-5-5-6-|

 

Enjoy!

Return to my Disturbed Bass Tabs tabs page

The Disturbed Bass Tablature is Copyright its respective owners.

Sign Up For My Newsletter
Subscribe | Unsubscribe

Site Map | Disclaimer | Privacy Policy | Media Kit | Submissions/Corrections

Website © 2000-2014 mattsmusicpage.com. All rights reserved.

Legal & DMCA: Matt's Music Page has been providing lyrics and tabs in a legal way, paying royalties each year to a few organizations. Then, all lyrics and tabs were removed from the site. Now, there's a new owner to the site, which purchased it August 26, 2014, and he is in negotiation to obtain licensing from BMI at the moment. If you have a specific DMCA request -- please do not hesitate to contact me via the contact button on top. I will do my very best to keep this site fully legal.

Get our toolbar!