Your One-Stop Source For
Music Lyrics
Bass and Guitar Tabs
and More...
Music Lyrics Bass and Guitar Tabs

 

The Disturbed Guitar Tabs Are Below

Learn To Read Tab
Chords Handbook
Corrections & Additions
Get Official Tab
Disturbed tabs @ 911Tabs

The Curse - Disturbed

-------------------------------------------------------------------------------

Tabbed by: Michael Capanna

Email: SpyderPB6@hotmail.com

 

 

Here we have The Curse. Listening to this song I just had to give a shot! Sure it isn't

perfect, but it is close, this only took a day to tab so please email me your comments

and feedback, and I will be happy to implement corrections into this tab. I did not tab

the solo as it will require a considerable amount of time. Please don't kill me on timing

I like to leave that up to you guys!

 

I believe the chorus is two guitar tracks, I did my best to implement them into one.

As always listen for timing!! Please don’t copy this and say it is your own work!!

 

Have fun with this one! Another great one by Disturbed!

 

LISTEN HARD FOR TIMING!

 

 

 

Tuning:CGCFAD

 

 

 

 

 

| / or\ slides

| h hammer-on

| x Mute note

| PM Palm Mute

 

Intro X3 0:00 to 0:26

 

D|------------------------------------------------------------------------------|

A|------------------------------------------------------------------------------|

F|------------------------------------------------------------------------------|

C|------------------------------------------------------------------------------|

G|---6---6---6---6---6-----6---6---4/5---7/8---5--------------------------------|

C|-0---0---0---0---0-----0---0---0-----0-----0----------------------------------|

 

All open C's palm muted in all parts of every intro riff.

 

D|------------------------------------------------------------------------------|

A|------------------------------------------------------------------------------|

F|------------------------------------------------------------------------------|

C|--------------------------------8---------7-----------------------------------|

G|---6---6---6---6---6-----6---6--8---------7-----------------------------------|

C|-0---0---0---0---0-----0---0----8-0-0-0-0-7-----------------------------------|

 

Verse X2 0:27 to 0:42

 

D|------------------------------------------------------------------------------|

A|------------------------------------------------------------------------------|

F|------------------------------------------------------------------------------|

C|------------------------------------------------------------------------------|

G|---5/6\5--------5/6\5-----------------5/6\5-------5/6\5-----------------------|

C|-0-------06566---------06566-8-00-88--------06566-------06506-0-8-0-55--------|

 

 

Pre-Chrous X1 0:43 to 0:51

 

D|------------------------------------------------------------------------------|

A|------------------------------------------------------------------------------|

F|------------------------------------------------------------------------------|

C|------------------------------------------------------------------------------|

G|-0--00-00-3-00-00--0--00-00-3-00-00--0--00-00-3-00-00--0--00-00-3-00-00-0-----|

C|-0--00-00-3-00-00--0--00-00-3-00-00--0--00-00-3-00-00--0--00-00-3-00-00-0-----|

PM--------------------------------------------------------------------PM

 

 

Chorus X1 0:51 to 1:08

 

D|------------------------------------------------------------------------------|

A|-3-3-333/5--------------------------------------------------------------------|

F|-2-2-222/3----9-10-5/7-7---------------5555555577777777-----------------------|

C|-0-0-000-0----7-8--3/5-5---------------xxxxxxxxxxxxxxxx-----------------------|

G|-0-0-000-0----7-8--3/5-5---------------3333333355555555-----------------------|

C|-0-0-000-0----7-8--3/5-5--Three-Times-----------------------------------------|

PM-------------PM

Timing here varies, listen hard.

 

 

 

Intro X1 1:09 to 1:17

D|------------------------------------------------------------------------------|

A|------------------------------------------------------------------------------|

F|------------------------------------------------------------------------------|

C|------------------------------------------------------------------------------|

G|---6---6---6---6---6-----6---6---4/5---7/8---5--------------------------------|

C|-0---0---0---0---0-----0---0---0-----0-----0----------------------------------|

 

 

D|------------------------------------------------------------------------------|

A|------------------------------------------------------------------------------|

F|------------------------------------------------------------------------------|

C|--------------------------------8---------7-----------------------------------|

G|---6---6---6---6---6-----6---6--8---------7-----------------------------------|

C|-0---0---0---0---0-----0---0----8-0-0-0-0-7-----------------------------------|

 

Verse X2 1:18 to 1:34

 

D|------------------------------------------------------------------------------|

A|------------------------------------------------------------------------------|

F|------------------------------------------------------------------------------|

C|------------------------------------------------------------------------------|

G|---5/6\5-------5/6\5----------------5/6\5-------5/6\5-------------------------|

C|-0-------0656---------0656-8-00-88--------0656---------06506-0-8-00--05-------|

 

 

Pre-Chrous X1 1:35 to 1:43

 

D|------------------------------------------------------------------------------|

A|------------------------------------------------------------------------------|

F|------------------------------------------------------------------------------|

C|------------------------------------------------------------------------------|

G|-0--00-00-3-00-00--0--00-00-3-00-00--0--00-00-3-00-00--0--00-00-3-00-00-0-----|

C|-0--00-00-3-00-00--0--00-00-3-00-00--0--00-00-3-00-00--0--00-00-3-00-00-0-----|

PM--------------------------------------------------------------------PM

 

 

Chorus X1 1:44 to 2:01

 

D|------------------------------------------------------------------------------|

A|-3-3-333/5--------------------------------------------------------------------|

F|-2-2-222/3----9-10-5/7-7---------------5555555577777777-----------------------|

C|-0-0-000-0----7-8--3/5-5---------------xxxxxxxxxxxxxxxx-----------------------|

G|-0-0-000-0----7-8--3/5-5---------------3333333355555555-----------------------|

C|-0-0-000-0----7-8--3/5-5--Three-Times-----------------------------------------|

PM-------------PM

Timing here varies, listen hard.

 

 

Solo Rythem X4 2:01 to 2:32

 

D|------------------------------------------------------------------------------|

A|------------------------------------------------------------------------------|

F|------------------------------------------------------------------------------|

C|-7/6\7---8---7\9---7/6\7---8---7\9---7/6\7---8---7\9-----7/6\7--8-------------|

G|-5/4\5---6---5\7---5/4\5---6---5\7---5/4\5---6---5\7-----5/4\5--6-------------|

C|-------0---0-------------0---0-------------0---0-------0----------------------|

 

 

End Solo Riff X1 2:32 to 2:36

 

D|------------------------------------------------------------------------------|

A|------------------------------------------------------------------------------|

F|------------------------------------------------------------------------------|

C|------------------------------------------------------------------------------|

G|--5/4\5-------5/4\5-----------8-8333------------------------------------------|

C|-0------65656-------656--000--8-8333------------------------------------------|

PM-PM

Heavy palm mutes on the opens above. Can lightly palm the rest if desired.

 

 

Final Chorus 2:36 to 3:10

 

D|------------------------------------------------------------------------------|

A|-33333333355------------------------------------------------------------------|

F|-22222222222-9-10-5/7-7-------------------------------------------------------|

C|-------------7-8--3/5-5-------------------------------------------------------|

G|-------------7-8--3/5-5-------------------------------------------------------|

C|-------------7-8--3/5-5-------------------------------------------------------|

 

D|------------------------------------------------------------------------------|

A|-3-3-333/5--------------------------------------------------------------------|

F|-2-2-222/3----9-10-5/7-7---------------5555555577777777-----------------------|

C|-0-0-000-0----7-8--3/5-5--Not-Three!!--xxxxxxxxxxxxxxxx-----------------------|

G|-0-0-000-0----7-8--3/5-5--TWO-TIMES!!--3333333355555555-----------------------|

C|-0-0-000-0----7-8--3/5-5--TWO-TIMES!!-----------------------------------------|

PM-------------PM

 

D|------------------------------------------------------------------------------|

A|-3-3-333/5--------------------------------------------------------------------|

F|-2-2-222/3----9-10-5/7-7---------------5555555577777777-----------------------|

C|-0-0-000-0----7-8--3/5-5---------------xxxxxxxxxxxxxxxx-----------------------|

G|-0-0-000-0----7-8--3/5-5--THREE-TIMES--3333333355555555-----------------------|

C|-0-0-000-0----7-8--3/5-5--THREE-TIMES-----------------------------------------|

PM-------------PM

Timing here varies, listen hard.

 

 

Outro X1 3:10 to 3:24

 

D|------------------------------------------------------------------------------|

A|------------------------------------------------------------------------------|

F|------------------------------------------------------------------------------|

C|------------------------------------------------------------------------0-----|

G|------------------------------------------------------------------------0-----|

C|-0--00-00-3-00-00--0--00-00-3-00-00--0--00-00-3-00-00--0--00-00-3-00-00-0-----|

PM--------------------------------------------------------------------PM

 

 

 

Thats it! I did my best, please email me comments and corrections!!

 

SpyderPB6@hotmail.com

 

===============================================================================

Return to my Disturbed Guitar Tabs page

The Disturbed Guitar Tablature is Copyright its respective owners.

Sign Up For My Newsletter
Subscribe | Unsubscribe

Site Map | Disclaimer | Privacy Policy | Media Kit | Submissions/Corrections

Website © 2000-2014 mattsmusicpage.com. All rights reserved.

Legal & DMCA: Matt's Music Page has been providing lyrics and tabs in a legal way, paying royalties each year to a few organizations. Then, all lyrics and tabs were removed from the site. Now, there's a new owner to the site, which purchased it August 26, 2014, and he is in negotiation to obtain licensing from BMI at the moment. If you have a specific DMCA request -- please do not hesitate to contact me via the contact button on top. I will do my very best to keep this site fully legal.

Get our toolbar!

 

Hard Rock Pin Las Vegas 4th of july red white and blue guitar
$5.0
Hard Rock Pin Las Vegas 4th of july red white and blue guitar picture


Hard Rock Pin Hollywood Fl Bell Girl with dice luggage and guitar
$5.0
Hard Rock Pin Hollywood Fl Bell Girl with dice luggage and guitar picture


Hard Rock Pin Las Vegas King of Clubs Guitar rare only 3 lines of info on back
$5.0
Hard Rock Pin Las Vegas King of Clubs Guitar rare only 3 lines of info on back picture


Hard Rock Pin Edmonton guitar pin
$5.0
Hard Rock Pin Edmonton guitar pin picture


Lladro Guitar Boy #4614 - Beautiful Piece of Lladro
$109.0
Lladro Guitar Boy #4614 - Beautiful Piece of Lladro picture