Your One-Stop Source For
Music Lyrics
Bass and Guitar Tabs
and More...
Music Lyrics Bass and Guitar Tabs

 

The Disturbed Bass Tabs Are Below

Learn To Read Tab
Chords Handbook
Corrections & Additions
Get Official Tab
Disturbed tabs @ 911Tabs

Tuning (lowest to highest) : C G C F

Bassist: Fuzz

Album: Ten Thousand Fists (2005)

Giant Records

 

Intro

F----------------------------------|--------------------------------|

C----------------------------------|--------------------------------|

G----8-5---------------------------|---8-5--------------------------|

C--0-----0-8-7-0-2-3-0-3-5-0-3-6-0-|-------0-8-7-0-2-3-0-3-5--3-3-0-|

 

 

F---------------------------------|--------------------------------|

C---------------------------------|--------------------------------|

G---8-5---------------------------|--------------------------------|

C-------0-8-7-0-2-3-0-3-5-0-3-6-3-|---3-3-3-3-3-3--7-7-7-7-7-7-7-0-|

 

 

F---------------------------------|--------------------------------|

C---------------------------------|--------------------------------|

G---8-5---------------------------|---8-5--------------------------|

C-------0-8-7-0-2-3-0-3-5-0-3-6-0-|-------0-8-7-0-2-3-0-3-5--3-3-0-|

 

 

F---------------------------------|---------------------------------|

C---------------------------------|-----------------7-5-------------|

G---8-5---------------------------|---------------------7-6-5-3-0---|

C-------0-8-7-0-2-3-0-3-5-0-3-6-3-|---3-3-3-3-3-3-3---------------0-|

 

Verse

F-----------------------------|------------------------------|

C-----------------------------|------------------------------|

G-----------------------------|------------------------------|

C---0-0--0-0--0-0--0-0--3-6-0-|---0-0--0-0--0--0-3-6-0-3-3-0-|

 

 

F-----------------------------|--------------------------------|

C-----------------------------|--------------------------------|

G-----------------------------|--------------------------------|

C---0-0--0-0--0-0--0-0--3-6-3-|---3-3-3-3-3-3--7-7-7-7-7-7-7-0-|

 

 

F-----------------------------|------------------------------|

C-----------------------------|------------------------------|

G-----------------------------|------------------------------|

C---0-0--0-0--0-0--0-0--3-6-0-|---0-0--0-0--0--0-3-6-0-3-3-0-|

 

 

F-----------------------------|---------------------------------|

C-----------------------------|---------------------------------|

G-----------------------------|---------------------------------|

C---0-0--0-0--0-0--0-0--3-6-3-|---3-3-3-3-3-3-3-7-7-7-7-7-7-7-7-|

 

 

Chorus

F-----------------------------|--------------------------------|

C-----------------------------|--------------------------------|

G-----------------------------|--------------------------------|

C--0---0-3/-8---8-8-8-8p7-3-3-|--0---0-5--8---8-8-8-8-10-10-10-|

 

 

F----------------------------|-------------------------|

C----------------------------|-------------------------|

G----------------------------|-------------------------|

C--0---0-3/-8---8-8-8-8p7-0--|--3---3-3--3--5-5-5------|

 

 

F-----------------------------|--------------------------------|

C-----------------------------|--------------------------------|

G-----------------------------|--------------------------------|

C--0---0-3/-8---8-8-8-8p7-3-3-|--0---0-5--8---8-8-8-8-10-10-10-|

 

 

F---------------------------|-----------5-----------------|

C---------------------------|-----------------------------|

G---------------------------|-----------------------------|

C----0--3--8---8-8-8-8p7-0--|--3---3-3-----5-5-5--1-1-1-1-|

 

 

F----------------------------------|--------------------------------|

C----------------------------------|--------------------------------|

G----8-5---------------------------|---8-5--------------------------|

C--0-----0-8-7-0-2-3-0-3-5-0-3-6-0-|-------0-8-7-0-2-3-0-3-5--3-3-0-|

 

 

F---------------------------------|---------------------------------|

C---------------------------------|---------------------------------|

G---8-5---------------------------|---------------------------------|

C-------0-8-7-0-2-3-0-3-5-0-3-6-3-|---3-3-3-3-3-3-3-7-7-7-7-7-7-7-0-|

 

Verse

F-----------------------------|------------------------------|

C-----------------------------|------------------------------|

G-----------------------------|------------------------------|

C---0-0--0-0--0-0--0-0--3-6-0-|---0-0--0-0--0--0-3-6-0-3-3-0-|

 

 

F-----------------------------|--------------------------------|

C-----------------------------|--------------------------------|

G-----------------------------|--------------------------------|

C---0-0--0-0--0-0--0-0--3-6-3-|---3-3-3-3-3-3--7-7-7-7-7-7-7-0-|

 

 

F-----------------------------|------------------------------|

C-----------------------------|------------------------------|

G-----------------------------|------------------------------|

C---0-0--0-0--0-0--0-0--3-6-0-|---0-0--0-0--0--0-3-6-0-3-3-0-|

 

 

F-----------------------------|---------------------------------|

C-----------------------------|---------------------------------|

G-----------------------------|---------------------------------|

C---0-0--0-0--0-0--0-0--3-6-3-|---3-3-3-3-3-3-3-7-7-7-7-7-7-7-7-|

 

Chorus

F-----------------------------|--------------------------------|

C-----------------------------|--------------------------------|

G-----------------------------|--------------------------------|

C--0---0-3/-8---8-8-8-8p7-3-3-|--0---0-5--8---8-8-8-8-10-10-10-|

 

 

F----------------------------|-------------------------|

C----------------------------|-------------------------|

G----------------------------|-------------------------|

C--0---0-3/-8---8-8-8-8p7-0--|--3---3-3--3--5-5-5------|

 

 

F-----------------------------|--------------------------------|

C-----------------------------|--------------------------------|

G-----------------------------|--------------------------------|

C--0---0-3/-8---8-8-8-8p7-3-3-|--0---0-5--8---8-8-8-8-10-10-10-|

 

 

F---------------------------|------------------------|------------------------|

C---------------------------|------------------------|------------------------|

G---------------------------|------------------------|------------------------|

C----0--3--8---8-8-8-8p7-0--|--3---3---3--5-5-5------|--0---0---0---0---0-0---|

 

Guitar Solo

F------------------------|------------------------|-----------------------------|

C------------------------|------------------------|-----------------------------|

G------------------------|------------------------|-------------3h5---5p3p0-----|

C--0---0---0---0---0-0---|--0---0---0---0---0-0---|--0---0---0--------------7-7-|

 

 

F--------------------------|----------------------------|

C--------------------------|----------------------------|

G--------------------------|----------------------------|

C--8---8-8--8---8--8--8--8-|--7h8--8---8---8--8-8p7-3p0-|

 

 

F------------------------|-------------------------|---------------------------|

C------------------------|-------------------------|---------------------------|

G------------------------|-------------------------|---------------------------|

C--0---0---0---0---0-0---|--0---0---0---0---0-0-3/-|--7h8--8-8--8---8--8--8--8-|

 

 

F-----------------------------------|------------------------|

C--------------8h10-10-10-10-8------|------------------------|

G------------------------------8----|------------------------|

C--7h8--8---8--------------------10-|--0---0---0---0---0-0---|

 

 

F--------------------------|--------------------------|

C--------------------------|--------------------------|

G--------------------------|--------------------------|

C--0---0---0---0---0-0-3h5-|--8---8-8--8---8--8--8--8-|

 

 

F---------------------------------|--------------------------|

C---------------------------------|--------------------------|

G--2/3-3-3/5-5-5/8-8-8-7--8p7-----|--------------------------|

C-----------------------------9-5-|--7--7--7--7--7--7--7--7--|

 

 

F--------------------------|------------------|-------------------|

C--------------------------|------------------|-------------------|

G-----------------------3--|------------------|-------------------|

C--5--5--5--3--3--2--2-----|------------------|-----------------0-|

 

Verse

F-----------------------------|--------------------------------|

C-----------------------------|--------------------------------|

G-----------------------------|--------------------------------|

C---0-0--0-0--0-0--0-0--3-6-3-|---3-3-3-3-3-3--7-7-7-7-7-7-7-0-|

 

 

F-----------------------------|------------------------------|

C-----------------------------|------------------------------|

G-----------------------------|------------------------------|

C---0-0--0-0--0-0--0-0--3-6-0-|---0-0--0-0--0--0-3-6-0-3-3-0-|

 

 

F-----------------------------|---------------------------------|

C-----------------------------|---------------------------------|

G-----------------------------|---------------------------------|

C---0-0--0-0--0-0--0-0--3-6-3-|---3-3-3-3-3-3-3-7-7-7-7-7-7-7-7-|

 

Chorus

F----------------------------|----------------------------|

C----------------------------|----------------------------|

G----------------------------|----------------------------|

C--0---0-0--8---8-8--8-8-8-8-|--0---0-0--8---8-8--8-8-8-8-|

 

 

F----------------------------|-------------------------|

C----------------------------|-------------------------|

G----------------------------|-------------------------|

C--0---0-0--8---8-8--8-8-8-8-|--3---3-3--3--5-5-5------|

 

 

F----------------------------|----------------------------|

C----------------------------|----------------------------|

G----------------------------|----------------------------|

C--0---0-0--8---8-8--8-8-8-8-|--0---0-0--8---8-8--8-8-8-8-|

 

F----------------------------|--------------------------|

C----------------------------|--------------------------|

G----------------------------|--------------------------|

C--0---0-0--8---8-8--8-8-8-8-|--5---5--5-5---5--5-5--5--|

 

 

F--------------------------|--------------------------|-----------------------|

C--------------------------|--------------------------|-----------------------|

G--------------------------|--------------------------|-----------------------|

C--5---5--5-5---5--5-5--5--|--5---5--5-5---5--5-5--5--|--5---5---5--5----5----|

 

Outro

F----------------------------------|---------------------------------|

C----------------------------------|---------------------------------|

G----------------------------------|---------------------------------|

C--0-3-0-0-8-7-0-1-3-0-0-0-0-3-5-0-|---3-0-0-8-7-0-1-3-0-0-0-0-0-0-0-|

 

 

F---------------------------------|---------------------------------|

C---------------------------------|---------------------------------|

G---------------------------------|---------------------------------|

C---3-0-0-8-7-0-1-3-0-0-0-0-3-5-0-|---3-0-0-8-7-0-1-3-0-0-0-0-0-0-0-|

 

 

F---------------------------------|---------------------------------|

C---------------------------------|---------------------------------|

G---------------------------------|---------------------------------|

C---3-0-0-8-7-0-1-3-0-0-0-0-3-5-0-|---3-0-0-8-7-0-1-3-0-0-0-0-0-0-0-|

 

 

F---------------------------------|---------------------------------|

C---------------------------------|---------------------------------|

G---------------------------------|---------------------------------|

C---3-0-0-8-7-0-1-3-0-0-0-0-3-5-0-|---3-0-0-8-7-0-1-3-0-0-0-0-0-0-0-|

Return to my Disturbed Bass Tabs tabs page

The Disturbed Bass Tablature is Copyright its respective owners.

Sign Up For My Newsletter
Subscribe | Unsubscribe

Site Map | Disclaimer | Privacy Policy | Media Kit | Submissions/Corrections

Website © 2000-2014 mattsmusicpage.com. All rights reserved.

Legal & DMCA: Matt's Music Page has been providing lyrics and tabs in a legal way, paying royalties each year to a few organizations. Then, all lyrics and tabs were removed from the site. Now, there's a new owner to the site, which purchased it August 26, 2014, and he is in negotiation to obtain licensing from BMI at the moment. If you have a specific DMCA request -- please do not hesitate to contact me via the contact button on top. I will do my very best to keep this site fully legal.

Get our toolbar!

 

Starbucks You Are Here Coffee Mug/Cup KENTUCKY - Horses, Banjo, Blue, White
$19.99
Starbucks You Are Here Coffee Mug/Cup KENTUCKY - Horses, Banjo, Blue, White picture


KNOWLES ROCKWELL HERITAGE "THE BANJO PLAYER" FIRST EDITION 1989 PLATE COA
$5.99
KNOWLES ROCKWELL HERITAGE


Vintage Postcard 1981 Disney World Banjo Kings Main Street USA 1981 Postmark
$4.99
 Vintage Postcard 1981 Disney World Banjo Kings Main Street USA 1981 Postmark picture


Banjo Barometer With Thermometer Hygrometer 490mm
$84.76
Banjo Barometer With Thermometer Hygrometer 490mm picture


ANTIQUE JAPANESE NIPPON FIGURINE SET OF 3 WOMEN GEISHA PLAYING DRUM BANJO FAN
$24.0
ANTIQUE JAPANESE NIPPON FIGURINE SET OF 3 WOMEN GEISHA PLAYING DRUM BANJO FAN picture