Your One-Stop Source For
Music Lyrics
Bass and Guitar Tabs
and More...
Music Lyrics Bass and Guitar Tabs

 

The Disturbed Guitar Tabs Are Below

Learn To Read Tab
Chords Handbook
Corrections & Additions
Get Official Tab
Disturbed tabs @ 911Tabs

My Child-Disturbed off of Asylum. Tabbed by yanksandjetsfan. The tuning is drop d down

half step (Drop C# or Drop Db). Very fun song!

Should be 100% right. *=palm mute

 

Intro (Play twice)

Eb -----------------------------------------------------------------|

Bb -----------------------------------------------------------------|

Gb -----------------------------------------------------------------|

Db -----------------------------------------------------------------|

Ab -----------------------------------------------------------------|

Db 3-0-0-6-0-0-3-0-0-3-0-0-8-0-7-7--3-0-0-6-0-3-0-3-0-0-0-0-6-0-5-6-|

 

Verse Part 1 (Play twice)

Eb -----------------------------------------------------------------|

Bb -----------------------------------------------------------------|

Gb -----------------------------------------------------------------|

Db -----------------------------------------------------------------|

Ab -----------------------------------------------------------------|

Db 3-0-0-6-0-0-3-0-0-3-0-0-8-0-7-7--3-0-0-6-0-3-0-3-0-0-0-0-6-0-5-6-|

* * * * * * * * * * * * * * * * * * * * * * * * * * * * * * * *

Verse Part 2 (Play twice)

Eb -----------------------------------------------------------------|

Bb -----------------------------------------------------------------|

Gb -----------------------------------------------------------------|

Db -----------------------------------------------------------------|

Ab -----------------------------------------------------------------|

Db 3-0-0-6-0-0-3-0-0-3-0-0-8-0-7-7--3-0-0-6-0-3-0-3-0-0-0-0-6-0-5-6-|

 

Pre Chorus (Play twice)

Eb ----------------------------------------------------------------|

Bb ----------------------------------------------------------------|

Gb ----------------------------------------------------------------|

Db ----------------------------------------------------------------|

Ab ----------------------------------------------------------------|

Db 5-5-5-6-6-0-0-0-0-3-3-3-5-5-5-6-6-6-0-0-3-3-0-0-3-3-2-2-3-3-8-8-|

* * * * * * * * * * * * * * * * * * * * * * * * * * * * * * * *

Chorus (Play twice)

Eb -----------------------------------------------------------------|

Bb -----------------------------------------------------------------|

Gb -----------------------------------------------------------------|

Db 1------------6-5------------0----------------1---------------1-0-|

Ab 1------------6-5------------0----------------1---------------1-0-|

Db 1------------6-5------------0----------------1---------------1-0-|

 

Play Verse Part 1

Play Verse Part 2

Play Pre Chorus

Play Chorus

 

Breakdown (With Flanger effect, Play 4 times)

Eb -----------------------------------------------------------------|

Bb -----------------------------------------------------------------|

Gb -----------------------------------------------------------------|

Db ----7-8-7---7---5-7-5---5-----------7-8-7---5-7-5---5------------|

Ab ----------8---8-------6---6-5-6-----------8-------6---6-5-6-5----|

Db 5-5-----------------------------5-5----------------------------8-|

* * * *

 

Play Chorus

 

Outro (Play twice)

Eb -----------------------------------------------------------------|

Bb -----------------------------------------------------------------|

Gb -----------------------------------------------------------------|

Db -----------------------------------------------------------------|

Ab -----------------------------------------------------------------|

Db 3-0-0-6-0-0-3-0-0-3-0-0-8-0-7-7--3-0-0-6-0-3-0-3-0-0-0-0-6-0-5-6-|

 

Thats it, enjoy!

Return to my Disturbed Guitar Tabs page

The Disturbed Guitar Tablature is Copyright its respective owners.

Sign Up For My Newsletter
Subscribe | Unsubscribe

Site Map | Disclaimer | Privacy Policy | Media Kit | Submissions/Corrections

Website © 2000-2014 mattsmusicpage.com. All rights reserved.

Legal & DMCA: Matt's Music Page has been providing lyrics and tabs in a legal way, paying royalties each year to a few organizations. Then, all lyrics and tabs were removed from the site. Now, there's a new owner to the site, which purchased it August 26, 2014, and he is in negotiation to obtain licensing from BMI at the moment. If you have a specific DMCA request -- please do not hesitate to contact me via the contact button on top. I will do my very best to keep this site fully legal.

Get our toolbar!

 

VINTAGE SORRENTO MUSIC JEWELRY BOX
$45.0
VINTAGE SORRENTO MUSIC JEWELRY BOX picture


VINTAGE LACQUERED MUSIC BOX JAPAN
$25.99
VINTAGE LACQUERED MUSIC BOX JAPAN picture


Vintage Kehlsteinhaus Bavaria Germany Colorscope Cow Bell View Master Music Box
$8.99
Vintage Kehlsteinhaus Bavaria Germany Colorscope Cow Bell View Master Music Box picture


VINTAGE SCHMIDT Signed Collectible Musical Turning Clown
$9.99
VINTAGE  SCHMIDT Signed Collectible Musical Turning Clown picture


Vintage - Linen - Postcard - Stage - Radio City Music Hall - New York City
$3.75
Vintage - Linen - Postcard - Stage - Radio City Music Hall - New York City   picture