Your One-Stop Source For
Music Lyrics
Bass and Guitar Tabs
and More...
Music Lyrics Bass and Guitar Tabs

 

The Tabs Are Below

Learn To Read Tab
Chords Handbook
Corrections & Additions
Get Official Tab
Disturbed tabs @ 911Tabs

Title: Intoxication

Album: Believe

Transcribed by: Erich Wolf

Email: ejw_xxxgodsmackxxx@yahoo.com

 

TUNNING: Db Ab Db Gb Bb Eb

 

INTRO:

------------------------------------------------------------------------------

------------------------------------------------------------------------------

------------------------------------------------------------------------------

--6-5-2---2-5-3-2---2---2-3-5-2-----------------------------------------------

--6-5-2---2-5-3-2---2---2-3-5-2-----------------------------------------------

--6-5-2---2-5-3-2---2---2-3-5-2-----------------------------------------------

Play this a bunch of times.

 

MAIN RIFF:

------------------------------------------------------------------------------

------------------------------------------------------------------------------

------------------------------------------------------------------------------

--6-5-2---2-5-3-2---2---2-2-3-0-2---------------------------------------------

--6-5-2---2-5-3-2---2---2-2-3-0-2---------------------------------------------

--6-5-2---2-5-3-2---2---2-2-3-0-2---------------------------------------------

 

VERSE: 2ND PART

------------------------------------------------------------------------------

------------------------------------------------------------------------------

------------------------------------------------------------------------------

--2-x-x-3333--0-------555--77--5-------2-x-x-3333--0-------555--77--5---------

--2-x-x-3333--0--x3---555--77--5--x1---2-x-x-3333--0--x3---555--77--5--x1-----

--2-x-x-3333--0-------555--77--5-------2-x-x-3333--0-------555--77--5---------

Play this when he says, "And the world will get you high"

 

CHORUS:

------------------------------------------------------------------------------

------------------------------------------------------------------------------

------------------------------------------------------------------------------

--3---2---5---7---5------3---2---0--0-0-0---5---3-----------------------------

--3---2---5---7---5------3---2---0--0-0-0---5---3--x2-------------------------

--3---2---5---7---5------3---2---0--0-0-0---5---3-----------------------------

PM.--

INTERLUDE/ENDING:

------------------------------------------------------------------------------

------------------------------------------------------------------------------

------------------------------------------------------------------------------

--2-2---2-2-2--2-2---2-2-2-2-------2-5-3-2---2-2-2-2---2-2---2-2-2-2-2--------

--2-2---2-2-2--2-2---2-2-2-2--x4---2-5-3-2---2-2-2-2---2-2---2-2-2-2-2--x2----

--2-2---2-2-2--2-2---2-2-2-2-------2-5-3-2---2-2-2-2---2-2---2-2-2-2-2--------

PM.-- PM.---- PM.---- PM.------

 

 

THIS SONG I BELIEVE IS ABOUT 95% CORRECT.

 

THANKS DISTURBED FOR ANOTHER GREAT SONG.

 

 

Return to my Disturbed tabs page

The Tablature is Copyright its respective owners.

Sign Up For My Newsletter
Subscribe | Unsubscribe

Site Map | Disclaimer | Privacy Policy | Media Kit | Submissions/Corrections

Website © 2000-2014 mattsmusicpage.com. All rights reserved.

Legal & DMCA: Matt's Music Page has been providing lyrics and tabs in a legal way, paying royalties each year to a few organizations. Then, all lyrics and tabs were removed from the site. Now, there's a new owner to the site, which purchased it August 26, 2014, and he is in negotiation to obtain licensing from BMI at the moment. If you have a specific DMCA request -- please do not hesitate to contact me via the contact button on top. I will do my very best to keep this site fully legal.

Get our toolbar!