Your One-Stop Source For
Music Lyrics
Bass and Guitar Tabs
and More...
Music Lyrics Bass and Guitar Tabs

 

The Disturbed Guitar Tabs Are Below

Learn To Read Tab
Chords Handbook
Corrections & Additions
Get Official Tab
Disturbed tabs @ 911Tabs

Indestructible - Disturbed

---------------------------------------------------------------------

Tabbed by: Taylor

Email:catloaf18@yahoo.com

 

UPDATED: 12/2/08

 

Revised the whole tab: Purchased Amazing Slow Downer. Song is 100%

Note for note.

 

 

Tuning: Drop C

Intro

D|------------------------------------------------------------|

A|------------------------------------------------------------|

F|------------------------------------------------------------|

C|--5/7-----7---10-----7-----8---8---5/7---10---7---8---888---|

G|--3/5-----5---8------5-----6---6---3/5---8----5---6---666---|

C|------0-0---0----0-0---0-0---0---0-----0---0----0---0-------|

. . . . . . . . . . . . .

 

D|------------------------------------------------------------|

A|------------------------------------------------------------|

F|------------------------------------------------------------|

C|--5/7-----7---10-----7-----8---8---5/7---10---7-------------|

G|--3/5-----5---8------5-----6---6---3/5---8----5--0-0-0-3-0--|

C|------0-0---0----0-0---0-0---0---0-----0---0----------------|

. . . . . . . . . . .

 

Repeat as needed

---------------------------------------------------------------

Verse

 

D|------------------------------------------------------------------|

A|------------------------------------------------------------------|

F|------------------------------------------------------------------|

C|-----------10----------7---------------------10----7--------------|

G|-----10h12---------8h10------7h8-5------10h12--8h10---7h8---10--8-|

C|-0-0---------0-0-0-------0-0--------0-0-------------0------0---0--|

. . . . . . . . . . . .

 

Repeat as Needed

----------------------------------------------------------------

Verse Ending

 

D|-----------------------------|

A|-----------------------------|

F|-----------------------------|

C|-5-5-5-5-3--8-8-8-8-7-0------|

G|-5-5-5-5-3--8-8-8-8-7-0------|

C|-5-5-5-5-3--8-8-8-8-7-0------|

----------------------------------------------------------------

 

Chorus

 

D|----------------------------------------------|-------|

A|----------------------------------------------|-------|

F|----------------------------------------------|-------|

C|-7777-----7---5/7-------7---7-7-----8---8/7---|-1-1-1-|

G|-5555-----5---3/5-------5---5-5-----6---6/5---|-1-1-1-|

C|-0000-0-0---0-------0-0---0-----0-0---0-------|-1-1-1-|

. . . . . . . . .

 

Play Above 3 times. On the second time play:

 

D|---------------------------------------------|---------|

A|---------------------------------------------|---------|

F|---------------------------------------------|---------|

C|-7777----7---5/7-------7---7-7-----8---8/7---|-1-3-3-1-|

G|-5555----5---3/5-------5---5-5-----6---6/5---|-1-3-3-1-|

C|-0000-0-0---0-------0-0---0-----0-0---0------|-1-3-3-1-|

. . . . . . . . .

 

 

----------------------------------------------------------------

Chorus ending

 

D|------------------------------------------|

A|------------------------------------------|

F|------------------------------------------|

C|--8-8-8-8-8-8---7-8p7-8p7-8p7-8p7-8p7-----|

G|--8-8-8-8-8-8---7-8p7-8p7-8p7-8p7-8p7-----|

C|--8-8-8-8-8-8---7-8p7-8p7-8p7-8p7-8p7-----|

 

Bridge

 

Wah and some other weird effect 0_0

D|------------------------------------------------------------|

A|------------------------------------------------------------|

F|--5/7-----7---10-----7-----8---8---5/7---10---7---8---8-8-8-|

C|------0-0---0----0-0---0-0---0--0-----0---0----0---0--------|

G|------------------------------------------------------------|

C|------------------------------------------------------------|

. . . . . . . . . . . . .

 

Solo

 

(The 2b means bend twice without releasing)

Hold the bend on the 10th fret and release AFTER you

release on the 22th fret

 

D|--------------------------|------------------------------|

A|--------------------------|------------------------------|

F|--------------------------|------------------------------|

C|-10(2b)-t22r--------------|--14p10p8--15p14p10p8---------|

G|--------------------------|------------------------------|

C|--------------------------|------------------------------|

Repeat this bar twice ^

 

D|-------------------------------------------|

A|-------------------------------------------|

F|-------------------------------------------|

C|----------7-8-7-----------7-8-10-8-7-------|

G|-10-7-8-10------10-8-8-10------------10----|

C|-------------------------------------------|

............................................

 

D|-------------------------------------|

A|-------------------------------------|

F|---9^--------------------------------|

C|------10--7h8-10p7--5h7-5p0----------|

G|-------------------------------------|

C|-------------------------------------|

 

 

 

D|---------------------------------------------|

A|-----------------------------8-10------------|

F|--9-10-9-12-9-10-9-12-9-10-9-----------------|

C|---------------------------------------------|

G|---------------------------------------------|

C|---------------------------------------------|

 

 

 

D|---------------------------------------------|

A|--13^-13~------------------------------------|

D|-----------9/10-b12r--------10h12p10~~-------|

C|----------------------10h12------------------|

G|---------------------------------------------|

C|---------------------------------------------|

 

 

 

D|-------13----------15-16--15-13----13---------------------|

A|-13-15----15-13-15--------------15----15-13-15------------|

F|------------------------------------------------12-10~~~--|

C|----------------------------------------------------------|

G|----------------------------------------------------------|

C|----------------------------------------------------------|

 

PHEW!! Now you're done with that.

---------------------------------------------------

 

Heavy chorus

 

 

e|-----------------------------------------------------------------|

B|-----------------------------------------------------------------|

G|-----------------------------------------------------------------|

D|-0000-0-00-0-00-0-00--1-1-1--4-4-4--3-3--------------------------|

A|-0000-0-00-0-00-0-00--1-1-1--4-4-4--3-3--------------------------|

E|-0000-0-00-0-00-0-00--1-1-1--4-4-4--3-3--------------------------|

 

--------------------------------------------------------------

 

 

 

 

 

 

| . palm mute

| b bend

| r release

| t tap

| / slide up

| \ slide down

| h hammer-on

| p pull-off

| ~ vibrato

| * Artificial harmonic

| x Mute note

=====================================================================

Return to my Disturbed Guitar Tabs page

The Disturbed Guitar Tablature is Copyright its respective owners.

Sign Up For My Newsletter
Subscribe | Unsubscribe

Site Map | Disclaimer | Privacy Policy | Media Kit | Submissions/Corrections

Website © 2000-2014 mattsmusicpage.com. All rights reserved.

Legal & DMCA: Matt's Music Page has been providing lyrics and tabs in a legal way, paying royalties each year to a few organizations. Then, all lyrics and tabs were removed from the site. Now, there's a new owner to the site, which purchased it August 26, 2014, and he is in negotiation to obtain licensing from BMI at the moment. If you have a specific DMCA request -- please do not hesitate to contact me via the contact button on top. I will do my very best to keep this site fully legal.

Get our toolbar!