Your One-Stop Source For
Music Lyrics
Bass and Guitar Tabs
and More...
Music Lyrics Bass and Guitar Tabs

 

The Disturbed Guitar Tabs Are Below

Learn To Read Tab
Chords Handbook
Corrections & Additions
Get Official Tab
Disturbed tabs @ 911Tabs

FACADE - Disturbed

-------------------------------------------------------------------------------

Tabbed by: Robin Wickihalter

Email: robinwickihalter@msn.com

 

Tuning: All Gtrs. in Drop C (CGCFAD

 

Finally a tab ;)

 

I'm pretty sure, everything's alright

 

Great song, really fun to play

 

Please rate and comment

 

h = Hammer On

p = Pull Off

x = Palm Muted

~ = Vibrato

/ = Slide Up

\ = Slide Down

b = Bend

r = Release

br= Bend and Release

PH= Pinch Harmonic

 

 

ENJOY!

 

INTRO

 

D|---------------------------------------------------------------------------|

A|---------------------------------------------------------------------------|

F|---------------------------------------------------------------------------|

C|---------------------------------------------------------------------------|

G|-----3h5-------------------------------------------------------------------|

C|-3-0-----6-0-5-3h5-3-0-3-0-3-6-6-5\1---------------------------------------|

 

D|---------------------------------------------------------------------------|

A|---------------------------------------------------------------------------|

F|---------------------------------------------------------------------------|

C|---------------------------------------------------------------------------|

G|-----3h5-------------------------------------------------------------------|

C|-3-0-----6-0-5-3h5-3-0-3-0-3-6-6-5-6---------------------------------------|

 

 

D|---------------------------------------------------------------------------|

A|---------------------------------------------------------------------------|

F|---------------------------------------------------------------------------|

C|---------------------------------------------------------------------------|

G|-----3h5-------------------------------------------------------------------|

C|-3-0-----6-0-5-3h5-3-0-3-0-3-6-6-5\1---------------------------------------|

 

 

D|---------------------------------------------------------------------------|

A|---------------------------------------------------------------------------|

F|---------------------------------------------------------------------------|

C|-8-8-8-8-8-8-8-8-7-7-7-10-10-10-7-7----------------------------------------|

G|-8-8-8-8-8-8-8-8-7-7-7-10-10-10-7-7----------------------------------------|

C|-8-8-8-8-8-8-8-8-7-7-7-10-10-10-7-7----------------------------------------|

 

VERSE

 

D|-----------------------------------------------------------------------------|

A|-----------------------------------------------------------------------------|

F|-----------------------------------------------------------------------------|

C|-----------------------------------------------------------------------------|

G|-8-8---8---8-----------8----8------------------------------------------------|

C|-0-0---0---0---10br----0----0-----10br--0--10--------------------------------|

 

No one knows just what has become___ of her...

 

D|-----------------------------------------------------------------------------|

A|-----------------------------------------------------------------------------|

F|-----------------------------------------------------------------------------|

C|-----------------------------------------------------------------------------|

G|-7-7---7---7-----------7----7-----------7--10--------------------------------|

C|-0-0---0---0---10br----0----0-----10br--0---0--------------------------------|

 

Shattered doll, desperate, oh so...

 

D|-----------------------------------------------------------------------------|

A|-----------------------------------------------------------------------------|

F|-----------------------------------------------------------------------------|

C|-----------------------------------------------------------------------------|

G|-8-8---8---8-----------8----8------------------------------------------------|

C|-0-0---0---0---10br----0----0-----10br--0--10--------------------------------|

 

innocent and delicate but too damn moderate and obsti-

 

D|-----------------------------------------------------------------------------|

A|-----------------------------------------------------------------------------|

F|-----------------------------------------------------------------------------|

C|-----------------------------------------------------------------------------|

G|-7-7---7---7-----------7----7-----------7--10--------------------------------|

C|-0-0---0---0---10br----0----0-----10br--0---0--------------------------------|

 

nate to let go. Broken down, hurt again, it never ends

 

D|-----------------------------------------------------------------------------|

A|-----------------------------------------------------------------------------|

F|-----------------------------------------------------------------------------|

C|-----------------------------------------------------------------------------|

G|-8-8---8---8-----------8----8------------------------------------------------|

C|-0-0---0---0---10br----0----0-----10br--0--10--------------------------------|

 

Frightened and trembling, did she fall again, an acci-

 

D|-----------------------------------------------------------------------------|

A|-----------------------------------------------------------------------------|

F|-----------------------------------------------------------------------------|

C|-----------------------------------------------------------------------------|

G|-7-7---7---7-----------7----7-----------7--10--------------------------------|

C|-0-0---0---0---10br----0----0-----10br--0---0--------------------------------|

 

dent? Her eyes encircled in black again, I can't be-

 

D|---------------------------------------------------------------------------|

A|---------------------------------------------------------------------------|

F|---------------------------------------------------------------------------|

C|-5-5-5-5-5-5-5-5-7-7-7-7-7-10-10-7-----------------------------------------|

G|-5-5-5-5-5-5-5-5-7-7-7-7-7-10-10-7-----------------------------------------|

C|-5-5-5-5-5-5-5-5-7-7-7-7-7-10-10-7-----------------------------------------|

 

lieve that__ she's still with_ him

 

CHORUS

 

D|---------------------------------------------------------------------------|

A|---------------------------------------------------------------------------|

F|---------------------------------------------------------------------------|

C|-----14-----15-----10-----12-----7-----5-----------------------------------|

G|-----12-----13------8-----10-----9-----3-----------------------------------|

C|-0-------0------0------0------0-----0-----0--------------------------------|

x x x x x

For how long will you try?

 

D|---------------------------------------------------------------------------|

A|---------------------------------------------------------------------------|

F|---------------------------------------------------------------------------|

C|-14--15-----10-----12-----------9-----10--10/15----------------------------|

G|-12--13------8-----10-----------7------8---8/13----------------------------|

C|---------0------0------0--0--0-----0---------------------------------------|

x x x x x x

How long until you walk a - way

 

D|---------------------------------------------------------------------------|

A|---------------------------------------------------------------------------|

F|---------------------------------------------------------------------------|

C|-----14-----15-----10-----12-----7-----5-----------------------------------|

G|-----12-----13------8-----10-----9-----3-----------------------------------|

C|-0-------0------0------0------0-----0--------------------------------------|

x x x x x

Your fa - çade can't dis - guise

 

w/wah--------------------------------------------------------------------------|

D|-----------------------------------------------------------------------------|

A|-----------------------------------------------------------------------------|

F|-----------------------------------------------------------------------------|

C|-8-8-8-8-8-8-8-8---3-3-3-3-5-5-3---------------------------------------------|

G|-8-8-8-8-8-8-8-8---3-3-3-3-5-5-3---------------------------------------------|

C|-8-8-8-8-8-8-8-8---3-3-3-3-5-5-3---------------------------------------------|

the fact that you're in misery

 

 

D|---------------------------------------------------------------------------|

A|---------------------------------------------------------------------------|

F|---------------------------------------------------------------------------|

C|---------------------------------------------------------------------------|

G|-----3h5-------------------------------------------------------------------|

C|-3-0-----6-0-5-3h5-3-0-3-0-3-6-6-5\1---------------------------------------|

 

D|---------------------------------------------------------------------------|

A|---------------------------------------------------------------------------|

F|---------------------------------------------------------------------------|

C|---------------------------------------------------------------------------|

G|-----3h5-------------------------------------------------------------------|

C|-3-0-----6-0-5-3h5-3-0-3-0-3-6-6-5-6---------------------------------------|

 

 

D|---------------------------------------------------------------------------|

A|---------------------------------------------------------------------------|

F|---------------------------------------------------------------------------|

C|---------------------------------------------------------------------------|

G|-----3h5-------------------------------------------------------------------|

C|-3-0-----6-0-5-3h5-3-0-3-0-3-6-6-5\1---------------------------------------|

 

 

D|---------------------------------------------------------------------------|

A|---------------------------------------------------------------------------|

F|---------------------------------------------------------------------------|

C|-8-8-8-8-8-8-8-8-7-7-7-10-10-10-7-7-0--------------------------------------|

G|-8-8-8-8-8-8-8-8-7-7-7-10-10-10-7-7-0--------------------------------------|

C|-8-8-8-8-8-8-8-8-7-7-7-10-10-10-7-7-0--------------------------------------|

 

Look

 

D|---------------------------------------------------------------------------|

A|---------------------------------------------------------------------------|

F|---------------------------------------------------------------------------|

C|---------------------------------------------------------------------------|

G|---------------------------------------------------------------------------|

C|---------------------------------------------------------------------------|

 

inside, see what has become of her. Hiding within again, can she

 

 

D|-----------------------------------------------------------------------------|

A|-----------------------------------------------------------------------------|

F|-----------------------------------------------------------------------------|

C|-----------------------------------------------------------------------------|

G|-5---5-----5----5------------5------5-----------5----------------------------|

C|-------------------10br------------------10br----------10--------------------|

x x x x x x x

pick herself__ up a - gain? It's just too

 

 

D|-----------------------------------------------------------------------------|

A|-----------------------------------------------------------------------------|

F|-----------------------------------------------------------------------------|

C|-----------------------------------------------------------------------------|

G|-5---5-----5----5------------5------5-----------5----------------------------|

C|-------------------10br------------------10br----------10--------------------|

x x x x x x x

diffi - cult and arduous to let go.

 

 

NOW PLAY THE VERSE, AND THAN THE CHORUS TWICE

 

 

2:14

 

Gtr. 1

D|---------------------------------------------------------------------------|

A|---------------------------------------------------------------------------|

F|---------------------------------------------------------------------------|

C|--------------------------x~~~~~~~~~~~~------------------------------------|

G|--------------------------x~~~~~~~~~~~~------------------------------------|

C|---------------------------------------------------------------------------|

 

PICK SLIDE

 

Gtr. 2

D|---------------------------------------------------------------------------|

A|---------------------------------------------------------------------------|

F|---------------------------------------------------------------------------|

C|-------------------------------1-------------------------------------------|

G|-0-0--0-0-0---0--0-0---0-0-0-0-1-------------------------------------------|

C|-0-0--0-0-0---0--0-0---0-0-0-0-1-------------------------------------------|

 

 

SOLO

w/wah

D|-----------------------------------------------------------------------------|

A|------------------------------8br------------------7-------------------------|

F|--------------------5br~---------------7---8---8-------8---7PH---------------|

C|---------4--5--4~------------------------------------------------------------|

G|-4/5--6----------------------------------------------------------------------|

C|-----------------------------------------------------------------------------|

 

D|---------------------------------------------------------------------------|

A|---------------------------------------------------------------------------|

F|-------------------------------------------------------5br-----------------|

C|-7h8-7-----8---------------------------4---5---4---------------------------|

G|--------------8---7---8--------5---6---------------6-----------------------|

C|---------------------------------------------------------------------------|

 

D|-----------------------------------------------------------------------------|

A|--------------8br-----------7------------13br---------10br-------------------|

F|--------------------7---8---8---8-------------------------------5br~---------|

C|-7---5---4-------------------------------------------------------------------|

G|-----------------------------------------------------------------------------|

C|-----------------------------------------------------------------------------|

 

D|---------------------------------------------------------------------------|

A|---------------------------------------------------------------------20----|

F|-------17h19-17--------17h19-17--------17h19-17--------17h19-17--19b---19r-|

C|-17h19-----------17h19-----------17h19-----------17h19---------------------|

G|---------------------------------------------------------------------------|

C|---------------------------------------------------------------------------|

 

Trem. bar Trem bar.

D|-----------------------------------------------------------------------------|

A|-20~~~~~~~~~~~----20-------20\-------------19~~~~~~~~~(19)\------------------|

F|-----------------------------------------------------------------------------|

C|-----------------------------------------------------------------------------|

G|-----------------------------------------------------------------------------|

C|-----------------------------------------------------------------------------|

 

D|---------------------------------------------------------------------------|

A|-13brp10--13p10--9----10h13p10-------------10h13p10--9---------------------|

F|--------------------------------9--(9)\------------------------------------|

C|---------------------------------------------------------------------------|

G|---------------------------------------------------------------------------|

C|---------------------------------------------------------------------------|

 

D|---------------------------------------------------------------------------|

A|-10h13p10------------------------------------------------------------------|

F|-----------9--10--12--10--10-----------------------------------------------|

C|------------------------------12~~~--12~~~-12~~~-12~~~-12-(12)\------------|

G|---------------------------------------------------------------------------|

C|---------------------------------------------------------------------------|

 

D|----8--------13---------16---------15--------13--------13--------12----------|

A|-----------------------------------------------------------------------------|

F|-/9-----9/13------13/17------17\16-----16\14-----14\13-----14\13-------------|

C|-----------------------------------------------------------------------------|

G|-----------------------------------------------------------------------------|

C|-----------------------------------------------------------------------------|

 

Trem. bar-----------------------|

D|-----------------10--------8-------10----------------------------------------|

A|-------14-----------------------------------13~~~---12~~~---13~~~---15~~~----|

F|-13\12-----12\11-----11\10----10\9-------------------------------------------|

C|-----------------------------------------------------------------------------|

G|-----------------------------------------------------------------------------|

C|-----------------------------------------------------------------------------|

 

Trem. bar--| Trem. bar

D|---------------------------------------------------------------------------|

A|-13~~~---13~~~-----------12------13------12------13p10------10\------------|

F|---------------------------------------------------------------------------|

C|---------------------------------------------------------------------------|

G|---------------------------------------------------------------------------|

C|---------------------------------------------------------------------------|

 

D|-10--------10--------10--------10--------10--------10----------------------|

A|----13p10-----13p10-----13p10-----13p10-----13p10-----13p10----------------|

F|---------------------------------------------------------------------------|

C|---------------------------------------------------------------------------|

G|---------------------------------------------------------------------------|

C|---------------------------------------------------------------------------|

 

D|-13p10-----13p10-----13p10-----13p10-----13p10-----13p10-------------------|

A|-------10--------10--------10--------10--------10--------10----------------|

F|---------------------------------------------------------------------------|

C|---------------------------------------------------------------------------|

G|---------------------------------------------------------------------------|

C|---------------------------------------------------------------------------|

 

 

CHORUS (Gtr. 1 plays this, Gtr. 2 plays the Chorus)

D|---------------------------------------------------------------------------|

A|-13b~~~~~~~~~~~~~~~~~~~~~~~~~~~~~~~~~~~~~~~~~~~~~~~~~~r--------------------|

F|---------------------------------------------------------------------------|

C|---------------------------------------------------------------------------|

G|---------------------------------------------------------------------------|

C|---------------------------------------------------------------------------|

 

 

OUTRO (3:29)

D|---------------------------------------------------------------------------|

A|---------------------------------------------------------------------------|

F|---------------------------------------------------------------------------|

C|---------------------------------------------------------------------------|

G|--------------/13\---------------------------------------------------------|

C|--------------/13\---------------------------------------------------------|

 

D|---------------------------------------------------------------------------|

A|---------------------------------------------------------------------------|

F|---------------------------------------------------------------------------|

C|---------------------------------------------------------------------------|

G|-----3h5-------------------------------------------------------------------|

C|-3-0-----6-0-5-3h5-3-0-3-0-3-6-6-5\1---------------------------------------|

 

D|---------------------------------------------------------------------------|

A|---------------------------------------------------------------------------|

F|---------------------------------------------------------------------------|

C|---------------------------------------------------------------------------|

G|-----3h5-------------------------------------------------------------------|

C|-3-0-----6-0-5-3h5-3-0-3-0-3-6-6-5-6---------------------------------------|

 

 

D|--------------------------------------|

A|--------------------------------------|

F|--------------------------------------|

C|--------------------------------------|

G|-----3h5------------------------------|

C|-3-0-----6-0-5-3h5-3-0-3-0-3-6-6-5\1--|

|--------| -> With delay

 

 

D|---------------------------------------------------------------------------|

A|---------------------------------------------------------------------------|

F|---------------------------------------------------------------------------|

C|-8-8-8-8-8-8-8-8-7-7-7-10-10-10-7-7-0--------------------------------------|

G|-8-8-8-8-8-8-8-8-7-7-7-10-10-10-7-7-0--------------------------------------|

C|-8-8-8-8-8-8-8-8-7-7-7-10-10-10-7-7-0--------------------------------------|

Return to my Disturbed Guitar Tabs page

The Disturbed Guitar Tablature is Copyright its respective owners.

Sign Up For My Newsletter
Subscribe | Unsubscribe

Site Map | Disclaimer | Privacy Policy | Media Kit | Submissions/Corrections

Website © 2000-2014 mattsmusicpage.com. All rights reserved.

Legal & DMCA: Matt's Music Page has been providing lyrics and tabs in a legal way, paying royalties each year to a few organizations. Then, all lyrics and tabs were removed from the site. Now, there's a new owner to the site, which purchased it August 26, 2014, and he is in negotiation to obtain licensing from BMI at the moment. If you have a specific DMCA request -- please do not hesitate to contact me via the contact button on top. I will do my very best to keep this site fully legal.

Get our toolbar!