Your One-Stop Source For
Music Lyrics
Bass and Guitar Tabs
and More...
Music Lyrics Bass and Guitar Tabs

 

The Tabs Are Below

Learn To Read Tab
Chords Handbook
Corrections & Additions
Get Official Tab
Disturbed tabs @ 911Tabs

Song: "Mistress"

Artist: Disturbed

Album: Believe

Transcribed By: wayne (monkeykorn19uk@hotmail.com)

My fav song on the new album

Tuning: Drop D, 1/2 Step Down (Db,Ab,Db,Gb,Bb,Eb)

can you say what u think of it by stars there the best band out there

INTRO/pre verse heavy distortion

|------------------------------------------------------------|

|------------------------------------------------------------|

|------------------------------------------------------------|

|-2-2--4-4-4-4------------------2-2--4-4-4-4-------------5-5-|

|-2-2--2-2-2-2-5-5-5-5-7-7-5-5--2-2--2-2-2-2-5-5-5-5-7-7-3-3-|

|-2-2----------5-5-5-5-7-7-5-5--2-2----------5-5-5-5-7-7-----|

 

VERSE: heavy distortion then has cry baby on 2nd time when played chorus

|--------------------------------------------------------------|

|--------------------------------------------------------------|

|--------------------------------------------------------------|

|--------------------------------------------------------------|

|-2-2--2-2-2-2------------------2-2--2-2-2-2---------------3-3-|

|-2-2----------5-5-5-5-7-7-5-5--2-2------------5-5-5-5-7-7-----|

pm . . . . . . . . . . . . . . . . . . .. . . . . . .

 

CHORUS: if you go with the song you get it heavy distortion

|--------------------------------------------------------------|

|-------------------------------------------------------------|

|-11---------------------------/11-------------------------------------|

|--9-XX-------XX---XX----------/9--XX-------XX---XX------------|

|--9-XX-4-5-4-XX-5-XX-5-7-X-2--/9--XX-4-5-4-XX-5-XX-5-7-9-5-|

|--9-XX-4-4-4-XX-0-XX-5-5-X-2--/9--XX-4-4-4-XX-0-XX-5-5-5-5-|

 

|-----------------------------------------------------------|

|----------------------------------------------------------|

|-11---------------------------/11--------------------------|

|--9-XX-------XX---XX----------/9--XX-------XX---XX------------|

|--9-XX-4-5-4-XX-5-XX-5-7-X-2--/9--XX-4-5-4-XX-5-XX-5-7-9-5-|

|--9-XX-4-4-4-XX-0-XX-5-5-X-2--/9--XX-4-4-4-XX-0-XX-5-5-5-5-|

 

 

|--------------------------------|

|--------------------------------|

|--------------------------------|

|---------------------------------|

|-7-7-7-7-7--7-7-5-5-5-5-|

|-6-6-6-6-6--5-5-5-5-5-5-|

 

FILL:

|----|

|----|

|-10-|

|--9-|

|--9-|

|--9-|

 

INTERLUDE: fx CH-1 Super Chorus, MT-2 Heavy Metal Zone he has not that hard of distortion

|----------------------------------------------------------------|

|----------------------3------2---------2----------------------|

|---4---0------0----------4-----2-----------------------------|

|-----4---4-------------------------4---------------------------|

|-2----------2-----2-------------------------5--5-5--0--4-4-|

|--------------------------------------------4--5-5--0--4-4-|

 

INTERLUDE 2: CH-1 Super Chorus on this it set up high for the 3 2 and heavy distortion on the 22

22

|------3------2--|

|----------------|

|----------------|

|-2-2---2-2------|

|-2-2---2-2------|

 

thanx have fun. monkey

 

 

Return to my Disturbed drum tabs page

The Tablature is Copyright its respective owners.

Sign Up For My Newsletter
Subscribe | Unsubscribe

Site Map | Disclaimer | Privacy Policy | Media Kit | Submissions/Corrections

Website © 2000-2014 mattsmusicpage.com. All rights reserved.

Legal & DMCA: Matt's Music Page has been providing lyrics and tabs in a legal way, paying royalties each year to a few organizations. Then, all lyrics and tabs were removed from the site. Now, there's a new owner to the site, which purchased it August 26, 2014, and he is in negotiation to obtain licensing from BMI at the moment. If you have a specific DMCA request -- please do not hesitate to contact me via the contact button on top. I will do my very best to keep this site fully legal.

Get our toolbar!

 

Starbucks You Are Here Coffee Mug/Cup KENTUCKY - Horses, Banjo, Blue, White
$19.99
Starbucks You Are Here Coffee Mug/Cup KENTUCKY - Horses, Banjo, Blue, White picture


KNOWLES ROCKWELL HERITAGE "THE BANJO PLAYER" FIRST EDITION 1989 PLATE COA
$5.99
KNOWLES ROCKWELL HERITAGE


Vintage Postcard 1981 Disney World Banjo Kings Main Street USA 1981 Postmark
$4.99
 Vintage Postcard 1981 Disney World Banjo Kings Main Street USA 1981 Postmark picture


Banjo Barometer With Thermometer Hygrometer 490mm
$84.76
Banjo Barometer With Thermometer Hygrometer 490mm picture


ANTIQUE JAPANESE NIPPON FIGURINE SET OF 3 WOMEN GEISHA PLAYING DRUM BANJO FAN
$24.0
ANTIQUE JAPANESE NIPPON FIGURINE SET OF 3 WOMEN GEISHA PLAYING DRUM BANJO FAN picture