Your One-Stop Source For
Music Lyrics
Bass and Guitar Tabs
and More...
Music Lyrics Bass and Guitar Tabs

 

The Disturbed Guitar Tabs Are Below

Learn To Read Tab
Chords Handbook
Corrections & Additions
Get Official Tab
Disturbed tabs @ 911Tabs

DIVIDE BY DISTURBED

 

Tabbed by: Jeenyis

 

 

I saw that there were very few decent tabs for this song up, so I decided I'd try and

something out myself for once. After searching many places for a decent tab, I got an idea

how it should be played, but none of the tabs sounded right. After listening and playing

for a while, I got this, and I think it sounds right. Please email me suggestions

jjweber@hughes.net if you think if could be improved.

 

This song is tabbed in Drop D tuning (D A D G B e)

 

Legend:

 

x = muted string (strummed with your left hand barely touching the strings)

. = palm muted

 

First half of the intro:

|--------------------------------------------------------------------------|

|--------------------------------------------------------------------------|

|--------------------------------------------------------------------------|

|--------------------------------------------------------------------------|

|6\2--2--2--3--3--3--3--4--4--4--4--5--5--5--5-----------------------------|

|6\2--2--2--3--3--3--3--4--4--4--4--5--5--5--5-----------------------------|

 

 

Second half of the intro:

|--------------------------------------------------------------------------|

|--------------------------------------------------------------------------|

|--------------------------------------------------------------------------|

|--------------------------------------------------------------------------|

|-3-xx-33-xx-33-xx-33-xx-3---3-1-6-----------------------------------------|

|-3-xx-33-xx-33-xx-33-xx-3---3-1-6-----------------------------------------|

 

 

First part of the verse:

|--------------------------------------------------------------------------|

|--------------------------------------------------------------------------|

|--------------------------------------------------------------------------|

|--------------------------------------------------------------------------|

|--3---3-3---3-3---3-3---3---3-1-6-----------------------------------------|

|--3---3-3---3-3---3-3---3---3-1-6-----------------------------------------|

. . . . . . . . . . .

 

Second part of the verse:

|--------------------------------------------------------------------------|

|--------------------------------------------------------------------------|

|--------------------------------------------------------------------------|

|--------------------------------------------------------------------------|

|--3---3-3---3-3---3-3---3---3-1-6-----------------------------------------|

|--3---3-3---3-3---3-3---3---3-1-6-----------------------------------------|

. . . . . .

 

Pre-chorus:

|--------------------------------------------------------------------------|

|--------------------------------------------------------------------------|

|--------------------------------------------------------------------------|

|--------------------------------------------------------------------------|

|8\4--4--4--5--5--5--5--6--6--6--6--7--7--7--7-----------------------------|

|8\4--4--4--5--5--5--5--6--6--6--6--7--7--7--7-----------------------------|

 

|--------------------------------------------------------------------------|

|--------------------------------------------------------------------------|

|--------------------------------------------------------------------------|

|--------------------------------------------------------------------------|

|--3-xx-3-3-xx-3-3-xx-3-3-xx-3----3/12\3-----------------------------------|

|--3-xx-3-3-xx-3-3-xx-3-3-xx-3----3/12\3-----------------------------------|

 

 

Chorus:

|--------------------------------------------------------------------------|

|--------------------------------------------------------------------------|

|--------------------------------------------------------------------------|

|-9-----10-----5------7------7-----7/10------------------------------------|

|-7-----8------3------5------5-----5/8-------------------------------------|

|-0-00--0--00--0--00--0--00--0--0--0-0-------------------------------------|

.. .. .. .. .

 

|--------------------------------------------------------------------------|

|--------------------------------------------------------------------------|

|--------------------------------------------------------------------------|

|-9-----10-----5------7----------------------------------------------------|

|-7-----8------3------5------4--4------------------------------------------|

|-0-00--0--00--0--00--0--00--4--4------------------------------------------|

.. .. .. ..

 

after going through that twice, repeat the verse and chorus again, then play this

before the solo:

|--------------------------------------------------------------------------|

|--------------------------------------------------------------------------|

|--------------------------------------------------------------------------|

|--------------------------------------------------------------------------|

|--------------------------------------------------------------------------|

|3--3--3--8--8--8--3--3--3--1--1--4--4/5--5/3------------------------------|

 

|--------------------------------------------------------------------------|

|--------------------------------------------------------------------------|

|--------------------------------------------------------------------------|

|--------------------------------------------------------------------------|

|--------------------------------------------------------------------------|

|3--3--3--8--8--8--3--3--3--1--1--4--4/5--5/7------------------------------|

 

 

|--------------------------------------------------------------------------|

|--------------------------------------------------------------------------|

|--------------------------------------------------------------------------|

|--------------------------------------------------------------------------|

|--------------------------------------------------------------------------|

|3--3--3--8--8--8--3--3--3--1--1--4--4/5--5/3--3-3-3-3-3-3-3-3-7-7-7-7-7---|

 

after playing that:

|--------------------------------------------------------------------------|

|--------------------------------------------------------------------------|

|--------------------------------------------------------------------------|

|--------------------------------------------------------------------------|

|3--3--3--8--8--8--3--3--3--1--1--1--4/5--5/3------------------------------|

|3--3--3--8--8--8--3--3--3--1--1--1--4/5--5/3------------------------------|

 

|--------------------------------------------------------------------------|

|--------------------------------------------------------------------------|

|--------------------------------------------------------------------------|

|--------------------------------------------------------------------------|

|3--3--3--8--8--8--3--3--3--1--1--1--4/5--5/3------------------------------|

|3--3--3--8--8--8--3--3--3--1--1--1--4/5--5/7------------------------------|

 

|--------------------------------------------------------------------------|

|--------------------------------------------------------------------------|

|--------------------------------------------------------------------------|

|--------------------------------------------------------------------------|

|3--3--3--8--8--8--3--3--3--1--1--1--4/5--5/3------------------------------|

|3--3--3--8--8--8--3--3--3--1--1--1--4/5--5/3------------------------------|

 

|--------------------------------------------------------------------------|

|--------------------------------------------------------------------------|

|--------------------------------------------------------------------------|

|--------------------------------------------------------------------------|

|--3--3--3--3--3--3--3--3--7--7--7--7--7--7\3-3----------------------------|

|--3--3--3--3--3--3--3--3--7--7--7--7--7--7\3-3----------------------------|

 

I have no clue how to play the solo, but the rhythm starts out playing the verse.. it's

to figure out but I'll tab it anyway:

|--------------------------------------------------------------------------|

|--------------------------------------------------------------------------|

|--------------------------------------------------------------------------|

|--------------------------------------------------------------------------|

|--3---3-3---3-3---3-3---3---3-1-6-----------------------------------------|

|--3---3-3---3-3---3-3---3---3-1-6-----------------------------------------|

. . . . . . . . . . . (4 times)

 

|--------------------------------------------------------------------------|

|--------------------------------------------------------------------------|

|--------------------------------------------------------------------------|

|-9-----10-----5------7------7-----7/10------------------------------------|

|-7-----8------3------5------5-----5/8-------------------------------------|

|-0-00--0--00--0--00--0--00--0--0--0-0-------------------------------------|

.. .. .. .. .

(play this part once, then go through these 3 parts one time each)

 

|--------------------------------------------------------------------------|

|--------------------------------------------------------------------------|

|--------------------------------------------------------------------------|

|--------------------------------------------------------------------------|

|--3---3-3---3-3---3-3---3---3-1-6----3-3-3-3-3-3-3-3-7-7-7-7-7\0----------|

|--3---3-3---3-3---3-3---3---3-1-6----3-3-3-3-3-3-3-3-7-7-7-7-7\0----------|

. . . . . . . . . . . (slowly slide down the neck)

 

Outro:

|--------------------------------------------------------------------------|

|--------------------------------------------------------------------------|

|--------------------------------------------------------------------------|

|--------------------------------------------------------------------------|

|-3-xx-33-xx-33-xx-33-xx-3---3-3-3-----------------------------------------|

|-3-xx-33-xx-33-xx-33-xx-3---3-3-3-----------------------------------------|

(play once)

 

|--------------------------------------------------------------------------|

|--------------------------------------------------------------------------|

|--------------------------------------------------------------------------|

|--------------------------------------------------------------------------|

|-3-xx-33-xx-33-xx-33-xx-3---3-1-6-----------------------------------------|

|-3-xx-33-xx-33-xx-33-xx-3---3-1-6-----------------------------------------|

repeat until the last time through, when you play:

|--------------------------------------------------------------------------|

|--------------------------------------------------------------------------|

|--------------------------------------------------------------------------|

|--------------------------------------------------------------------------|

|-3-xx-33-xx-33-xx-33-xx-3---3-3-3-3---------------------------------------|

|-3-xx-33-xx-33-xx-33-xx-3---3-3-3-3---------------------------------------|

 

Thank you for viewing my tab.. if you have any suggestions, please email me at jjweber@hughes.net

Return to my Disturbed Guitar Tabs page

The Disturbed Guitar Tablature is Copyright its respective owners.

Sign Up For My Newsletter
Subscribe | Unsubscribe

Site Map | Disclaimer | Privacy Policy | Media Kit | Submissions/Corrections

Website © 2000-2014 mattsmusicpage.com. All rights reserved.

Legal & DMCA: Matt's Music Page has been providing lyrics and tabs in a legal way, paying royalties each year to a few organizations. Then, all lyrics and tabs were removed from the site. Now, there's a new owner to the site, which purchased it August 26, 2014, and he is in negotiation to obtain licensing from BMI at the moment. If you have a specific DMCA request -- please do not hesitate to contact me via the contact button on top. I will do my very best to keep this site fully legal.

Get our toolbar!