Your One-Stop Source For
Music Lyrics
Bass and Guitar Tabs
and More...
Music Lyrics Bass and Guitar Tabs

 

The Tabs Are Below

Learn To Read Tab
Chords Handbook
Corrections & Additions
Get Official Tab
Disturbed tabs @ 911Tabs

Song: Devour

Artist: Disturbed

Album: Believe

 

Tabbed by: Ari "KoMO" (fun_ari@playful.com)

Tuning: C# G# C# F# A# D#

 

 

INTRO:

D# -----------------------------------------------------------------

A# ---1---0-----0-1---1-----0-1-------1---0-----0-1-----------------

F# -----------2-----------2-------2-----------2-------2---0-------0- 2x

C# -----------------------------------------------------------1-----

G# -2---2---2-------2---2-------2---2---2---2-------2---2---2---2---

C# -----------------------------------------------------------------

 

 

VERSE 1:

D# -----------------------------------------------------------------

A# ---1---0-----0-1---------------1---0-----0-1---------------------

F# -----------2---------------------------2-------2---0-------0-----

C# -------------------------------------------------------1--------- 2x

G# -2---2---2-------------------2---2---2-------2---2---0---2-------

C# -----------------------------------------------------------------

 

D# -----------------------------------------------------------------

A# ---1---0-----0-1---1-----0-1-------1---0-----0-1-----------------

F# -----------2-----------2-------2-----------2-------2---0-------0-

C# -----------------------------------------------------------1----- 2x

G# -2---2---2-------2---2-------2---2---2---2-------2---2---2---2---

C# -----------------------------------------------------------------

 

 

PRE-CHORUS:

D# --------------------------------------------------------------------

A# --------------------------------------------------------------------

F# -4-4-4--------4---4-4--------4-4-4--------7---9-9-------------------

C# -4-4-4--------4---4-4--------4-4-4--------7---9-9-------------------

G# -2-2-2--------2---2-2--------2-2-2--------5---7-7-------------------

C# --------------------------------------------------------------------

A# C# D#

 

 

CHORUS(2x):

D# ----------------------------------------------

A# ----------------------------------------------

F# ----------------------------------------------

C# -9--7--5----555555-----0--0004----444444------

G# -9--7--5----555555-----0--0004----444444------

C# -9--7--5----555555-----0--0004----444444------

A# G# F# C# F

 

D# ----------------------------------------------

A# ------------8888------------------------------

F# ----------------77----------------------------

C# -9--7--5---------------2--2224----444444------

G# -9--7--5---------------2--2224----444444------

C# -9--7--5---------------2--2224----444444------

A# G# F# C# F

 

 

 

PRE-VERSE2:

D# --------------------------------------------------------------------

A# ---1---0-----0-1---1-----0-1-------1---0-----0-1--------------------

F# -----------2-----------2-------2-----------2-----0----3-------------

C# -------------------------------------------------0----3-------------

G# -2---2---2-------2---2-------2---2---2---2-------0----3-------------

C# --------------------------------------------------------------------

G# B

 

VERSE2(same as INTRO)

PRE-CHORUS

CHORUS

 

 

BRIDGE:

D# ----------------------------------------

A# ----------------------------------------

F# --2----2-2----2-2-2----2-2-2-2-3-3------

C# --2----2-2----2-2-2----2-2-2-2-3-3------

G# --2----2-2----2-2-2----2-2-2-2-3-3------

C# ----------------------------------------

(palm muted)

A# B

 

D# ----------------------------------------

A# ----------------------------------------

F# --2----2-2----2-2-2----2-2-2-2-3-3------ 4x

C# --2----2-2----2-2-2----2-2-2-2-3-3------

G# --2----2-2----2-2-2----2-2-2-2-3-3------

C# ----------------------------------------

A# B

 

 

CHORUS

 

 

OUTRO:

D# ----------------------------------

A# ---1---0-----0-1---1-----0-1------

F# -----------2-----------2-------2--

C# ---------------------------------- 4x

G# -2---2---2-------2---2-------2----

C# ----------------------------------

 

=============================================

all interpretation work by Ari "KoMO" 2002

 

 

Return to my Disturbed tabs page

The Tablature is Copyright its respective owners.

Sign Up For My Newsletter
Subscribe | Unsubscribe

Site Map | Disclaimer | Privacy Policy | Media Kit | Submissions/Corrections

Website © 2000-2014 mattsmusicpage.com. All rights reserved.

Legal & DMCA: Matt's Music Page has been providing lyrics and tabs in a legal way, paying royalties each year to a few organizations. Then, all lyrics and tabs were removed from the site. Now, there's a new owner to the site, which purchased it August 26, 2014, and he is in negotiation to obtain licensing from BMI at the moment. If you have a specific DMCA request -- please do not hesitate to contact me via the contact button on top. I will do my very best to keep this site fully legal.

Get our toolbar!