Your One-Stop Source For
Music Lyrics
Bass and Guitar Tabs
and More...
Music Lyrics Bass and Guitar Tabs

 

The Disturbed Guitar Tabs Are Below

Learn To Read Tab
Chords Handbook
Corrections & Additions
Get Official Tab
Disturbed tabs @ 911Tabs

"Deceiver" --- Disturbed

-------------------------------------------------------------------------------

 

 

 

Tabbed by: [travis]

 

 

 

Tuning: Half Step Down = Eb Ab Db Gb Bb Eb (low to high)

 

 

 

Legend:

 

... = palm mute

h = hammer on

p = pull off

b = bend

w = wammy bar

+ = steps pulled up on whammy bar

- = steps pushed down on whammy bar

T = tap

() = bring bent note back to normal/note not picked

/ = slide up

\ = slide down

h/ = pick once

p\ = pick once

h/p\ = pick once

1 = whole step

.5 = half step

.25 = quarter step

* = harmonic

gb = gradual bend

__ = hold bend

~ = vibrato

 

 

 

 

Guitar 1:

eb|----------------------------------------------------------------------------------------------|

Bb|----------------------------------------------------------------------------------------------|

Gb|----------------------------------------------------------------------------------------------|

Db|-------3-2------------------------3-2--------------------------------3-2----------------------|

Ab|----------3---6---5-------------------3-6-5--------------3-3-3-----------3---6---5------------|

Eb|-3-0-0------0---0---6-0-5-6-0-1-3-----------6-5-0-6-0-5-0------3-0-0-------0---0--6-0-5-6-0-1-|

.............................................................

 

Guitar 2: raise the harmonic with the whammy bar.

+1_______

eb|-12*~~~~~~~~~~~~~5*~~~~~---------------------------------------------------|

Bb|------------------------5~~~~~~~~~-----------------------------------------|

Gb|----------------------------------3*~~~~~~~~~~~~~5*~~~~~~~(5*)w------(5)---|

Db|---------------------------------------------------------------------------|

Ab|---------------------------------------------------------------------------|

Eb|---------------------------------------------------------------------------|

 

 

============================================

Guitar 1:

eb|----------------------------------|

Bb|----------------------------------|

Gb|----------------------------------|

Db|---3-2---------------------5-5-5--|

Ab|-------3-6-5---------------3-3-3--|

Eb|-3-----------6-5-0-6-0-5-0--------|

 

Guitar 2:

+1__________

eb|---------------------------|

Bb|---------------------------|

Gb|---------------------------|

Db|-5*~~~~~~~~~~(5)w----------|

Ab|---------------------------|

Eb|---------------------------|

 

=============================================

Guitar 1:

eb|--------------------------------------------------------------------|

Bb|--------------------------------------------------------------------|

Gb|--------------------------------------------------------------------|

Db|-------10-9------8---7---------------10-9---8-7---------------5-5-5-|

Ab|-5-----8--7-10---6---5-8---7-8---3-5-8--7---6-5-8-7---8---7---3-3-3-|

Eb|-3-0-0------8--0---0---6-0-5-6-0-1-3------8-----6-5-0-6-0-5-0-------|

.... . . . . . . . .

 

Guitar 2: the 12th fret is a tapped harmonic.

T

____________________ +.5________+1_________________________________

eb|--------------------------------------------------------------------|

Bb|--------------------------------------------------------------------|

Gb|--------------------------------------------------------------------|

Db|-(5)~~~~~~~~~12*~~~~(12)w~~~~~(12)w~~~~~~~~~~~~~~~~~~~~~~~~~~~~~~~~~|

Ab|--------------------------------------------------------------------|

Eb|--------------------------------------------------------------------|

 

==============================================

"You can't deny it."

Guitar 1:

eb|--------------------------------------------------------------------|

Bb|--------------------------------------------------------------------|

Gb|--------------------------------------------------------------------|

Db|-------10-9------8---7---------------10-9---8-7---------------5-5-5-|

Ab|-5-----8--7-10---6---5-8---7-8---3-5-8--7---6-5-8-7---8---7---3-3-3-|

Eb|-3-0-0------8--0---0---6-0-5-6-0-1-3------8-----6-5-0-6-0-5-0-------|

.... . . . . . . . .

 

===============================================

Guitar 1:

 

eb|------------------------------------------|

Bb|------------------------------------------|

Gb|------------------------------------------|

Db|----------2-------2-----2-------2-------2-|

Ab|----------2-------2-----2-------2-------2-|

Eb|-0-0-0-0--0--0-0--0--0--0--0-0--0--0-0--0-|

....... ... . ... ...

 

================================================

Guitar 1:

eb|-------------------------------------------------------------------|

Bb|-------------------------------------------------------------------|

Gb|-------------------------------------------------------------------|

Db|-------7-------5-------5----------------7-------5-----4------------|

Ab|-5h7---5---2-2-3-------3-----5h/7-5h7---5---2-2-3-----3------3-3-3-|

Eb|-5h7-0---0-0-0---0-0-0---0-0-3h/5-5h7-0---0-0-0---0-0----0-0-1-1-1-|

. . ..... ... . . ... ...

 

Guitar 1:

eb|------------------------------------------------------------------|

Bb|------------------------------------------------------------------|

Gb|------------------------------------------------------------------|

Db|-------7-------5-------5------------------------------------------|

Ab|-5h7---5---2-2-3-------3-----5h/7-5-5-5-5-5-5-5-5-7-7-7-7-7-5-5-7-|

Eb|-5h7-0---0-0-0---0-0-0---0-0-3h/5-3-3-3-3-3-3-3-3-5-5-5-5-5-3-3-5-|

. . ..... ... .....

 

==================================================

Guitar 1:

eb|-------------------------------------------------------------------|

Bb|-------------------------------------------------------------------|

Gb|-------------------------------------------------------------------|

Db|-------7-------5-------5----------------7-------5-----4------------|

Ab|-5h7---5---2-2-3-------3-----5h/7-5h7---5---2-2-3-----3------3-3-3-|

Eb|-5h7-0---0-0-0---0-0-0---0-0-3h/5-5h7-0---0-0-0---0-0----0-0-1-1-1-|

. . ..... ... . . ... ...

 

Guitar 1:

eb|------------------------------------------------------------------|

Bb|------------------------------------------------------------------|

Gb|------------------------------------------------------------------|

Db|-------7-------5-------5------------------------------------------|

Ab|-5h7---5---2-2-3-------3-----5h/7-5-5-5-5-5-5-5-5-7-7-7-7-7-5-5-7-|

Eb|-5h7-0---0-0-0---0-0-0---0-0-3h/5-3-3-3-3-3-3-3-3-5-5-5-5-5-3-3-5-|

. . ..... ... .....

 

====================================================

Chorus 1:

Guitar 1:

eb|--------------------------------------------------------------|

Bb|--------------------------------------------------------------|

Gb|--------------------------------------------------------------|

Db|-9-----------5~----------------7-----------5~-----------------|

Ab|-7--2-2--2-2-3~-------7--------4--2-2--2-2-3~--------7-----10-|

Eb|----0-0--0-0----5-7-8---8-7-8-----0-0--0-0-----5-7-8---8-7----|

 

Guitar 2: tremelo effect and reverb.

eb|-19--------17--------14---15---19---15---17--------14---------|

Bb|------20--------17----------------------------17--------15----|

Gb|--------------------------------------------------------------|

Db|--------------------------------------------------------------|

Ab|--------------------------------------------------------------|

Eb|--------------------------------------------------------------|

 

=====================================================

Guitar 1:

eb|------------------------------------------------------------------------|

Bb|------------------------------------------------------------------------|

Gb|------------------------------------------------------------------------|

Db|-9-----------5~----------------7-----5---7-5--10~--10-10-10-10-12-12----|

Ab|-7--2-2--2-2-3~-------7--------4-----4---4-4--8~~--8--8--8--8--10-10-12-|

Eb|----0-0--0-0----5-7-8---8-7-8----0-0---0-----------------------------10-|

... .

 

Guitar 2: tremelo effect and reverb.

eb|-19--------17---------------19--------17---19--------17--|

Bb|------20-------17--19---20-------20-------------20-------|

Gb|---------------------------------------------------------|

Db|---------------------------------------------------------|

Ab|---------------------------------------------------------|

Eb|---------------------------------------------------------|

 

======================================================

Guitar 1:

eb|--------------------------------------------------------------|

Bb|--------------------------------------------------------------|

Gb|--------------------------------------------------------------|

Db|-9-----------5~----------------7-----------5~-----------------|

Ab|-7--2-2--2-2-3~-------7--------4--2-2--2-2-3~--------7-----10-|

Eb|----0-0--0-0----5-7-8---8-7-8-----0-0--0-0-----5-7-8---8-7----|

 

Guitar 2: tremelo effect and reverb.

eb|-19--------17--------14---15---19---15---17--------14---------|

Bb|------20--------17----------------------------17--------15----|

Gb|--------------------------------------------------------------|

Db|--------------------------------------------------------------|

Ab|--------------------------------------------------------------|

Eb|--------------------------------------------------------------|

 

========================================================

Guitar 1:

eb|------------------------------------------------------------------------|

Bb|------------------------------------------------------------------------|

Gb|------------------------------------------------------------------------|

Db|-9-----------5~----------------7-----5---7-5--10~--10-10-10-10-12-12----|

Ab|-7--2-2--2-2-3~-------7--------4-----4---4-4--8~~--8--8--8--8--10-10-12-|

Eb|----0-0--0-0----5-7-8---8-7-8----0-0---0-----------------------------10-|

... .

 

Guitar 2: tremelo effect and reverb.

eb|-19--------17---------------19--------17---19--------17--|

Bb|------20-------17--19---20-------20-------------20-------|

Gb|---------------------------------------------------------|

Db|---------------------------------------------------------|

Ab|---------------------------------------------------------|

Eb|---------------------------------------------------------|

 

=========================================================

Break:

Guitar 1:

eb|-----------------------------------------------------------------|

Bb|-----------------------------------------------------------------|

Gb|-----------------------------------------------------------------|

Db|-------3-2-------------------------3-2---------------------------|

Ab|-----------3---6---5-------------------3-6-5---------------------|

Eb|-3-0-0-------0---0---6-0-5-6-0-1-3-----------6-5-0-6-0-5-0-8-8-8-|

................................. . . .

 

==========================================================

Guitar 1:

eb|--------------------------------------------------------------------|

Bb|--------------------------------------------------------------------|

Gb|--------------------------------------------------------------------|

Db|-------10-9------8---7---------------10-9---8-7---------------5-5-5-|

Ab|-5-----8--7-10---6---5-8---7-8---3-5-8--7---6-5-8-7---8---7---3-3-3-|

Eb|-3-0-0------8--0---0---6-0-5-6-0-1-3------8-----6-5-0-6-0-5-0-------|

.... . . . . . . . .

 

==========================================================

Guitar 1:

eb|------------------------------------------|

Bb|------------------------------------------|

Gb|------------------------------------------|

Db|----------2-------2-----2-------2-------2-|

Ab|----------2-------2-----2-------2-------2-|

Eb|-0-0-0-0--0--0-0--0--0--0--0-0--0--0-0--0-|

....... ... . ... ...

 

==========================================================

Guitar 1:

eb|-------------------------------------------------------------------|

Bb|-------------------------------------------------------------------|

Gb|-------------------------------------------------------------------|

Db|-------7-------5-------5----------------7-------5-----4------------|

Ab|-5h7---5---2-2-3-------3-----5h/7-5h7---5---2-2-3-----3------3-3-3-|

Eb|-5h7-0---0-0-0---0-0-0---0-0-3h/5-5h7-0---0-0-0---0-0----0-0-1-1-1-|

. . ..... ... . . ... ...

 

Guitar 1:

eb|------------------------------------------------------------------|

Bb|------------------------------------------------------------------|

Gb|------------------------------------------------------------------|

Db|-------7-------5-------5------------------------------------------|

Ab|-5h7---5---2-2-3-------3-----5h/7-5-5-5-5-5-5-5-5-7-7-7-7-7-5-5-7-|

Eb|-5h7-0---0-0-0---0-0-0---0-0-3h/5-3-3-3-3-3-3-3-3-5-5-5-5-5-3-3-5-|

. . ..... ... .....

 

==================================================

Guitar 1:

eb|-------------------------------------------------------------------|

Bb|-------------------------------------------------------------------|

Gb|-------------------------------------------------------------------|

Db|-------7-------5-------5----------------7-------5-----4------------|

Ab|-5h7---5---2-2-3-------3-----5h/7-5h7---5---2-2-3-----3------3-3-3-|

Eb|-5h7-0---0-0-0---0-0-0---0-0-3h/5-5h7-0---0-0-0---0-0----0-0-1-1-1-|

. . ..... ... . . ... ...

 

Guitar 1:

eb|------------------------------------------------------------------|

Bb|------------------------------------------------------------------|

Gb|------------------------------------------------------------------|

Db|-------7-------5-------5------------------------------------------|

Ab|-5h7---5---2-2-3-------3-----5h/7-5-5-5-5-5-5-5-5-7-7-7-7-7-5-5-7-|

Eb|-5h7-0---0-0-0---0-0-0---0-0-3h/5-3-3-3-3-3-3-3-3-5-5-5-5-5-3-3-5-|

. . ..... ... .....

 

====================================================

Chorus 1:

Guitar 1:

eb|--------------------------------------------------------------|

Bb|--------------------------------------------------------------|

Gb|--------------------------------------------------------------|

Db|-9-----------5~----------------7-----------5~-----------------|

Ab|-7--2-2--2-2-3~-------7--------4--2-2--2-2-3~--------7-----10-|

Eb|----0-0--0-0----5-7-8---8-7-8-----0-0--0-0-----5-7-8---8-7----|

 

Guitar 2: tremelo effect and reverb.

eb|-19--------17--------14---15---19---15---17--------14---------|

Bb|------20--------17----------------------------17--------15----|

Gb|--------------------------------------------------------------|

Db|--------------------------------------------------------------|

Ab|--------------------------------------------------------------|

Eb|--------------------------------------------------------------|

 

=====================================================

Guitar 1:

eb|------------------------------------------------------------------------|

Bb|------------------------------------------------------------------------|

Gb|------------------------------------------------------------------------|

Db|-9-----------5~----------------7-----5---7-5--10~--10-10-10-10-12-12----|

Ab|-7--2-2--2-2-3~-------7--------4-----4---4-4--8~~--8--8--8--8--10-10-12-|

Eb|----0-0--0-0----5-7-8---8-7-8----0-0---0-----------------------------10-|

... .

 

Guitar 2: tremelo effect and reverb.

eb|-19--------17---------------19--------17---19--------17--|

Bb|------20-------17--19---20-------20-------------20-------|

Gb|---------------------------------------------------------|

Db|---------------------------------------------------------|

Ab|---------------------------------------------------------|

Eb|---------------------------------------------------------|

 

======================================================

Guitar 1:

eb|--------------------------------------------------------------|

Bb|--------------------------------------------------------------|

Gb|--------------------------------------------------------------|

Db|-9-----------5~----------------7-----------5~-----------------|

Ab|-7--2-2--2-2-3~-------7--------4--2-2--2-2-3~--------7-----10-|

Eb|----0-0--0-0----5-7-8---8-7-8-----0-0--0-0-----5-7-8---8-7----|

 

Guitar 2: tremelo effect and reverb.

eb|-19--------17--------14---15---19---15---17--------14---------|

Bb|------20--------17----------------------------17--------15----|

Gb|--------------------------------------------------------------|

Db|--------------------------------------------------------------|

Ab|--------------------------------------------------------------|

Eb|--------------------------------------------------------------|

 

========================================================

Guitar 1:

eb|------------------------------------------------------------------------|

Bb|------------------------------------------------------------------------|

Gb|------------------------------------------------------------------------|

Db|-9-----------5~----------------7-----5---7-5--10~--10-10-10-10-12-12----|

Ab|-7--2-2--2-2-3~-------7--------4-----4---4-4--8~~--8--8--8--8--10-10-12-|

Eb|----0-0--0-0----5-7-8---8-7-8----0-0---0-----------------------------10-|

... .

 

Guitar 2: tremelo effect and reverb.

eb|-19--------17---------------19--------17---19--------17--|

Bb|------20-------17--19---20-------20-------------20-------|

Gb|---------------------------------------------------------|

Db|---------------------------------------------------------|

Ab|---------------------------------------------------------|

Eb|---------------------------------------------------------|

 

=========================================================

Guitar 1:

eb|--------------------------------|

Bb|--------------------------------|

Gb|--------------------------------|

Db|-2-2-2-2-x-x-2-2-2-2-x-x-2-2-2--|

Ab|-2-2-2-2-x-x-2-2-2-2-x-x-2-2-2--|

Eb|-0-0-0-0-x-x-0-0-0-0-x-x-0-0-0--|

... ...

 

=========================================================

Interlude:

Guitar 1:

eb|-----------------------------------------------------------------------------------------------|

Bb|------------------------------12---------------------------------------12----------------------|

Gb|------------11-------14-11-------13----14-11---------------11----14-11----13----14-11----------|

Db|---12-11-------12-11-------12-------14-------12---12-11-------12-------------14-------12-11-12-|

Ab|-9-------12-------------------------------------9-------12-------------------------------------|

Eb|-----------------------------------------------------------------------------------------------|

 

Guitar 2: I think this is right.

eb|-----------------------------------------------------------------|

Bb|-----------------------------------------------------------------|

Gb|---------------2-----4-----------------------2---4---------------|

Db|---------4-------4-----6---7-4-----------4-----4---6---7-4-------|

Ab|---5-4-0---5-4-----5-----7-----5---5-4-0---5---------7-----5-4-5-|

Eb|-2-------------------------------2-------------------------------|

...............................................................

 

=========================================================

Guitar 1:

eb|------------------------------------------------|

Bb|------------------------------12----------------|

Gb|------------11-------14-11-------13----14-11----|

Db|---12-11-------12-11-------12-------14-------12-|

Ab|-9-------12-------------------------------------|

Eb|------------------------------------------------|

 

Guitar 2:

eb|---------------------------------|

Bb|---------------------------------|

Gb|---------------------4-----------|

Db|---------4-----7-4-----6---7-4---|

Ab|---5-4-0---5-4-----5-----7-----5-|

Eb|-2-------------------------------|

...............................

 

==========================================================

Guitar 1:

eb|------------------------------------------|

Bb|------------------------------------------|

Gb|----------------------------9-9-9-9-9-9-9-|

Db|-11-11-11-11-11-11-11-11-11-9-9-9-9-9-9-9-|

Ab|-11-11-11-11-11-11-11-11-11-7-7-7-7-7-7-7-|

Eb|--9--9--9--9--9--9--9--9--9---------------|

 

 

==========================================================

Guitar 1:

eb|-----------------------------------------------------------------------------------------------|

Bb|------------------------------12---------------------------------------12----------------------|

Gb|------------11-------14-11-------13----14-11---------------11----14-11----13----14-11----------|

Db|---12-11-------12-11-------12-------14-------12---12-11-------12-------------14-------12-11-12-|

Ab|-9-------12-------------------------------------9-------12-------------------------------------|

Eb|-----------------------------------------------------------------------------------------------|

 

Guitar 2: I think this is right.

eb|-----------------------------------------------------------------|

Bb|-----------------------------------------------------------------|

Gb|---------------2-----4-----------------------2---4---------------|

Db|---------4-------4-----6---7-4-----------4-----4---6---7-4-------|

Ab|---5-4-0---5-4-----5-----7-----5---5-4-0---5---------7-----5-4-5-|

Eb|-2-------------------------------2-------------------------------|

 

=========================================================

Guitar 1:

eb|------------------------------------------------|

Bb|------------------------------12----------------|

Gb|------------11-------14-11-------13----14-11----|

Db|---12-11-------12-11-------12-------14-------12-|

Ab|-9-------12-------------------------------------|

Eb|------------------------------------------------|

 

Guitar 2:

eb|---------------------------------|

Bb|---------------------------------|

Gb|---------------------4-----------|

Db|---------4-----7-4-----6---7-4---|

Ab|---5-4-0---5-4-----5-----7-----5-|

Eb|-2-------------------------------|

==========================================================

Guitar 1:

eb|------------------------------------------|

Bb|------------------------------------------|

Gb|----------------------------9-9-9-9-9-9-9-|

Db|-11-11-11-11-11-11-11-11-11-9-9-9-9-9-9-9-|

Ab|-11-11-11-11-11-11-11-11-11-7-7-7-7-7-7-7-|

Eb|--9--9--9--9--9--9--9--9--9---------------|

 

==========================================================

Guitar 1:

eb|---------------------------------------------------------------------|

Bb|---------------------------------------------------------------------|

Gb|---------------------------------------------------------------------|

Db|---------------------------------------------------------2-2-2-2-4-4-|

Ab|-5p/4---------5p\4-----5p\4-----5p\4-5p\2---------5p\4---0-0-0-0-2-2-|

Eb|-3p/2-2-2-2-2-3p\2-2-2-3p\2-2-2-3p\2-3p\4-2-2-2-2-3p\2-2-------------|

....... ... ... ....... .

 

==========================================================

Guitar 1:

eb|--------------------------------------------------------------|

Bb|--------------------------------------------------------------|

Gb|--------------------------------------------------------------|

Db|-9-----------5~----------------7-----------5~-----------------| ------------|

Ab|-7--2-2--2-2-3~-------7--------4--2-2--2-2-3~--------7-----10-| |

Eb|----0-0--0-0----5-7-8---8-7-8-----0-0--0-0-----5-7-8---8-7----| |

|

Guitar 1: | x2

eb|------------------------------------------------------------------------| |

Bb|------------------------------------------------------------------------| |

Gb|------------------------------------------------------------------------| |

Db|-9-----------5~----------------7-----5---7-5--10~--10-10-10-10-12-12----| --|

Ab|-7--2-2--2-2-3~-------7--------4-----4---4-4--8~~--8--8--8--8--10-10-12-|

Eb|----0-0--0-0----5-7-8---8-7-8----0-0---0-----------------------------10-|

... .

 

Guitar 2: tremelo effect and reverb.

eb|-19--------17--------14---15---19---15---17--------14---------|

Bb|------20--------17----------------------------17--------15----|

Gb|--------------------------------------------------------------|

Db|--------------------------------------------------------------| ---------|

Ab|--------------------------------------------------------------| |

Eb|--------------------------------------------------------------| |

|

Guitar 2: tremelo effect and reverb. | x2

eb|-19--------17---------------19--------17---19--------17--| |

Bb|------20-------17--19---20-------20-------------20-------| |

Gb|---------------------------------------------------------| --------------|

Db|---------------------------------------------------------|

Ab|---------------------------------------------------------|

Eb|---------------------------------------------------------|

 

===========================================================

Guitar 1:

eb|-------------------------------------------------------------|

Bb|-------------------------------------------------------------|

Gb|-4-----------------------------------------------------------|

Db|-2-----------5~~---------------7-----------5~~-------------5-|

Ab|---2-2-2-2-2-3~~-------7-------4-2-2-2-2-2-3~~-------7-------|

Eb|---0-0-0-0-0-----5-7-8---8-7-8---0-0-0-0-0-----5-7-8---8-7---|

......... .........

 

Guitar 2: tremelo effect and reverb.

eb|-19--------17--------14---15---19---15---17--------14---------|

Bb|------20--------17----------------------------17--------15----|

Gb|--------------------------------------------------------------|

Db|--------------------------------------------------------------|

Ab|--------------------------------------------------------------|

Eb|--------------------------------------------------------------|

 

=============================================================

Guitar 1:

eb|-----------------------------------------------------------------|

Bb|-----------------------------------------------------------------|

Gb|-4---------------------------------------------5~~-5-5-5-5-7-7---|

Db|-2-----------5~~---------------7-----5---7--5--3~~-3-3-3-3-5-5-7-|

Ab|---2-2-2-2-2-3~~-------7-------4-----4---4--4------------------5-|

Eb|---0-0-0-0-0-----5-7-8---8-7-8---0-0---0-------------------------|

......... ... .

 

 

Guitar 2: tremelo effect and reverb.

eb|-19--------17---------------19--------17---19--------17--|

Bb|------20-------17--19---20-------20-------------20-------|

Gb|---------------------------------------------------------|

Db|---------------------------------------------------------|

Ab|---------------------------------------------------------|

Eb|---------------------------------------------------------|

 

==============================================================

Guitar 1:

eb|-------------------------------------------------------------|

Bb|-------------------------------------------------------------|

Gb|-4-----------------------------------------------------------|

Db|-2-----------5~~---------------7-----------5~~-------------5-|

Ab|---2-2-2-2-2-3~~-------7-------4-2-2-2-2-2-3~~-------7-------|

Eb|---0-0-0-0-0-----5-7-8---8-7-8---0-0-0-0-0-----5-7-8---8-7---|

......... .........

 

==============================================================

Guitar 1:

eb|-----------------------------------------------------------------|

Bb|-----------------------------------------------------------------|

Gb|-4---------------------------------------------5~~-5-5-5-5-7-7---|

Db|-2-----------5~~---------------7-----5---7--5--3~~-3-3-3-3-5-5-7-|

Ab|---2-2-2-2-2-3~~-------7-------4-----4---4--4------------------5-|

Eb|---0-0-0-0-0-----5-7-8---8-7-8---0-0---0-------------------------|

......... ... .

 

 

Please Rate And Comment

[travis]

 

 

========

Return to my Disturbed Guitar Tabs page

The Disturbed Guitar Tablature is Copyright its respective owners.

Sign Up For My Newsletter
Subscribe | Unsubscribe

Site Map | Disclaimer | Privacy Policy | Media Kit | Submissions/Corrections

Website © 2000-2014 mattsmusicpage.com. All rights reserved.

Legal & DMCA: Matt's Music Page has been providing lyrics and tabs in a legal way, paying royalties each year to a few organizations. Then, all lyrics and tabs were removed from the site. Now, there's a new owner to the site, which purchased it August 26, 2014, and he is in negotiation to obtain licensing from BMI at the moment. If you have a specific DMCA request -- please do not hesitate to contact me via the contact button on top. I will do my very best to keep this site fully legal.

Get our toolbar!