Your One-Stop Source For
Music Lyrics
Bass and Guitar Tabs
and More...
Music Lyrics Bass and Guitar Tabs

 

The Disturbed Guitar Tabs Are Below

Learn To Read Tab
Chords Handbook
Corrections & Additions
Get Official Tab
Disturbed tabs @ 911Tabs

Disturbed - Crucified

From the Album 'Asylum' (2010)

Tuning - CGCFAD

tabbed by jjhand

 

This song has a twisted sounding verse riff and a great chorus

with lead guitar arpeggios. Please rate/comment.

 

 

Intro/Main Riff - 2 Heavy Distorted Guitars arranged for 1 3/4 time

d|-------------------------|-------------------------|

A|-------------------------|-------------------------|

F|-------------------------|-------------------------|

C|-5-5-5-5-5-5-5-5-5-5-5-5-|-5-5-5-5-5-5-5-5-5-5-5-5-|

G|-------------------------|-------------------------|

C|-5-5-5-5-6-6-6-7-7-7-8-8-|-5-5-5-5-6-6-6-7-7-7-8-8-|

 

d|-------------------------|-------------------------|

A|-------------------------|-------------------------|

F|-------------------------|-------------------------|

C|-4-4-4-4-4-4-4-4-4-4-4-4-|-4-4-4-4-4-4-4-4-4-4-4-4-|

G|-------------------------|-------------------------|

C|-5-5-5-5-6-6-6-7-7-7-8-8-|-5-5-5-5-6-6-6-7-7-7-8-8-|

 

 

 

 

Verse 1 - Continue Main Riff, palm muting lower set of notes 2x,

Then play a third time without pm's

 

"When others left before I could bear to turn away

Now that it's come to this Is there nothing left to say?

I've never known before Such exquisite suffering

As I watched you walk away I gave in to panicking

I can't believe that this is really happening

Have I really lost again? Desperation drives me..."

 

 

 

Prechorus - (0:49) - 4/4 time

|--------------------|-----------------|--------------------|-----------------|

|--------------------|-----------------|--------------------|-----------------|

|--------------------|-----------------|--------------------|-----------------|

|-1-------1--1--1--1-|---pm***********-|-1-------1--1--1--1-|---pm***********-|

|-1-------1--1--1--1-|---0-0-0-0-0-0-0-|-1-------1--1--1--1-|---0-0-0-0-0-0-0-|

|-1-------1--1--1--1-|---0-0-0-0-0-0-0-|-1-------1--1--1--1-|---0-0-0-0-0-0-0-|

"insane I will focus all the pain"

 

 

 

|--------------------|-----------------|-----------------|-----------------|

|--------------------|-----------------|-----------------|-----------------|

|--------------------|-----------------|-5-5-5-5-5-5-5-5-|-5/7-7-7-7-7-7-7-|

|-1-------1--1--1--1-|---3-3-3-3-3-1-1-|-5-5-5-5-5-5-5-5-|-5/7-7-7-7-7-7-7-|

|-1-------1--1--1--1-|---3-3-3-3-3-1-1-|-3-3-3-3-3-3-3-3-|-3/5-5-5-5-5-5-5-|

|-1-------1--1--1--1-|---3-3-3-3-3-1-1-|-----------------|-----------------|

"Right into your heart 'til it makes you"

 

 

 

Chorus -

Rhythm Guitar part

|-----------------|-----------------|-----------------|-----------------|

|-----------------|-----------------|-----------------|-----------------|

|-----------------|---------5-5-5-5-|-----------------|-----------------|

|-5-5-5-5-5-5-7-7-|-7-3---3-5-5-5-5-|-1-1-1-1-1-x-x-1-|-3-3-3-3-3-3-3-3-|

|-5-5-5-5-5-5-7-7-|-7-3---3-3-3-3-3-|-1-1-1-1-1-x-x-1-|-3-3-3-3-1-1-3-3-|

|-5-5-5-5-5-5-7-7-|-7-3---3---------|-1-1-1-1-1-x-x-1-|-3-3-3-3-----3-3-|

|

| Lead Guitar

|---------18--17-18-|-17--15-----18--17-|-------------17h18-|-------------18--20-|

|---18--15--15------|---18--18-15--15---|---18--15--18------|---18-20-18---------|

|-15--15------------|-------------------|-15--15--15--------|-----------19--19---|

|-------------------|-------------------|-------------------|--------------------|

|-------------------|-------------------|-------------------|--------------------|

|-------------------|-------------------|-------------------|--------------------|

1 "Blind... 'til the faces of your former world have"

2 "Mine Until the voice of doubt no longer"

 

 

 

Chorus Ending 1:

Rhythm Guitar part

|-----------------|-----------------|-----------------|-----------------|

|-----------------|-----------------|-----------------|-----------------|

|-----------------|-----------------|-----------------|-----------------|

|-5-5-5-5-5-5-7-7-|-7-3---3-3-3---3-|-1-1-1-1-1-x-x-1-|-----------3-3-3-|

|-5-5-5-5-5-5-7-7-|-7-3---3-3-3---3-|-1-1-1-1-1-x-x-1-|-0-0-0-0-0-3-3-3-|

|-5-5-5-5-5-5-7-7-|-7-3---3-3-3---3-|-1-1-1-1-1-x-x-1-|-0-0-0-0-0-3-3-3-|

|

| Lead Guitar

|---------18--17-18-|-17--15-----18--17-|--------------------|------------------|

|---18--15--15------|---18--18-15--15---|---18--15-18--15-18-|-15~~---15--15h16-|

|-15--15------------|-------------------|-15--15-----17------|------------------|

|-------------------|-------------------|--------------------|------------------|

|-------------------|-------------------|--------------------|------------------|

|-------------------|-------------------|--------------------|------------------|

1 "fallen from your sight 'til you're"

2 "Domin- ates your mind, I'm"

 

 

 

Repeat chorus but ending changes (last bar)

 

Rhythm

|-----------------|

|-----------------|

|-----------------|

|-0-0-0-0-0-------| Go Straight back into main riff

|-0-0-0-0-0-------|

|-0-0-0-0-0-------|

|

| Lead Ending

|---------------------|

|-15--15h16-15--15h16-|

|---17--------17------|

|---------------------|

|---------------------|

|---------------------|

"Crucified"

 

 

 

 

 

As mentioned, play main riff before Verse 2 starts

 

 

 

 

 

Play Verse 2 Similarly with pm's the first 2 times through, then a third without

 

Lyrics:

"Cold and unwhole again, Crying out and questioning

Will I ever love again? What's the point of anything?

It takes a toll again This is where the "fun" begins

Visions haunt me through the night Now I'm dying for your sins

I can't believe that If you looked me in the face

You could say there's nothing left How the silence drives me insane"

 

 

 

Play Prechorus

 

 

 

 

 

Play Chorus but change ending to:

 

Rhythm

|---------------------|--------------|

|---------------------|--------------|

|---------------------|--------------|

|-0-0--0-0--0-3--3-3--|-5------------|

|-0-0--0-0--0-3--3-3--|-5--------12\-|

|-0-0--0-0--0-3--3-3--|-5--------12\-|

|

| Lead Ending

|---------------------|-------------|

|-15--15h16-15--15h16-|-------------|

|---17--------17------|-------------|

|---------------------|-17~~~-------|

|---------------------|-------------|

|---------------------|-------------|

 

 

 

Bridge Riff - all pm eighth notes, played 2x

 

4/4 time 3/4 time

|---------------------------------|-------------------------|

|---------------------------------|-------------------------|

|---------------------------------|-------------------------|

|---------------------------------|-------------------------|

|-------0-----------1-----------3-|-----1-----3-----3-2-----|

|-0-1-3---3-1-0-1-3---3-1-0-1-3---|-0-1---1-0---0-1-----4-3-|

 

same as above

|---------------------------------|-------------------------|

|---------------------------------|-------------------------|

|---------------------------------|----------------let ring-|

|---------------------------------|-------------------------|

|-------0-----------1-----------3-|-----1-----3-----3-2---2-|

|-0-1-3---3-1-0-1-3---3-1-0-1-3---|-0-1---1-0---0-1-----4---|

 

 

Bridge Lyrics:

"I cannot feel anything, anger I've been harboring

You've nailed me to the cross, upon it will remain

I can't feel anything, rage inside is festering

You've nailed me to the cross, upon it will remain"

 

 

 

 

Play Prechorus Again

 

 

Play Chorus Again 2x through and end on:

 

 

Rhythm

|---------------------|--------------|

|---------------------|--------------|

|---------------------|--------------|

|-0-0--0-0--0-3--3-3--|-5------------|

|-0-0--0-0--0-3--3-3--|-5------------|

|-0-0--0-0--0-3--3-3--|-5------------|

|

| Lead Ending

|---------------------|-------------|

|-15--15h16-15--15h16-|-------------|

|---17--------17------|-------------|

|---------------------|-17~~~-------|

|---------------------|-------------|

|---------------------|-------------|

 

 

 

KEY

************************************

 

| / slide up

| \ slide down

| h hammer-on

| p pull-off

| ~ vibrato

| x Mute note

| pm palm mutes

| b Bend

| r Bend release

Return to my Disturbed Guitar Tabs page

The Disturbed Guitar Tablature is Copyright its respective owners.

Sign Up For My Newsletter
Subscribe | Unsubscribe

Site Map | Disclaimer | Privacy Policy | Media Kit | Submissions/Corrections

Website © 2000-2014 mattsmusicpage.com. All rights reserved.

Legal & DMCA: Matt's Music Page has been providing lyrics and tabs in a legal way, paying royalties each year to a few organizations. Then, all lyrics and tabs were removed from the site. Now, there's a new owner to the site, which purchased it August 26, 2014, and he is in negotiation to obtain licensing from BMI at the moment. If you have a specific DMCA request -- please do not hesitate to contact me via the contact button on top. I will do my very best to keep this site fully legal.

Get our toolbar!