Your One-Stop Source For
Music Lyrics
Bass and Guitar Tabs
and More...
Music Lyrics Bass and Guitar Tabs

 

The Tabs Are Below

Learn To Read Tab
Chords Handbook
Corrections & Additions
Get Official Tab
Disturbed tabs @ 911Tabs

Disturbed- Prayer

 

Transcribed By: Ryan Huntsman (IbanezBassMX)

Email: Ryan82184@aol.com

 

Tunning: Drop D Tunning, then one half step down.

low to high: (Db,Ab,Db,Gb)

 

Intro (0:00)

Gb-----------------------------

Db----------------------------- X3

Ab-5-5--5-5-5-5--5-5--5-5-5-5--

Db-----------------------------

 

Gb---------------------------

Db---------------------------

Ab-5-5--5-5-5-5--5-5--5-3----

Db------------------------0--

 

Gb-------------------------------------------------------

Db----------------------------------------------------7--

Ab--------------------------------------------------3----

Db-0-0--0-0-0-0--0-0--0-0-0-0--0-0--0-0-0-0--0-0--0------

 

1st Verse (0:20)

Another dream that will never come true...

Gb-----------------------------5-5--5-5-5-5--8-8--8-8-8-7----

Db-7-7--7-7-7-7--7-7--7-7-7-7-----------------------------7--

Ab-----------------------------------------------------------

Db-----------------------------------------------------------

 

Another life that I've taken from you...

Gb--------------------------5-5-5--5-5-5-8--8-8-8-5----------------------------5--

Db-7--7-7-7-7--7-7--7-7-7-7-------------------------7-7--7-7-7-7--7-7--7-7-7-7----

Ab--------------------------------------------------------------------------------

Db--------------------------------------------------------------------------------

 

crippled you completely All the cries you're beginning to hear...

Gb-5--5-5-5-5-8--8--8-8-8-8-7-----------------------------5-5--5-5-5-5--8-8--8-8-7--

Db-----------------------------7-7--7-7-7-7--7-7--7-7-7-7---------------------------

Ab----------------------------------------------------------------------------------

Db----------------------------------------------------------------------------------

 

Pre-Chorus (0:39) Let me enlighten you

Gb--------------------|---------------------|---------------------

Db--------------------|---------------------|---------------------

Ab--------------------|---------------------|---------------------

Db-7~\--1-1--1--1-3/8-|-7~\---1-1--1--1-3-1-|-7~\--1-1--1--1-3-8--

 

This is the way I pray

Gb--------------------

Db--------------------

Ab--------------------

Db-7~\--3-3-3--3-3-3--

 

Chorus (0:49) Living just isnt hard enough

Gb----------------|----------------------------------------

Db----------------|----------------------------------------

Ab----------------|----------------------------------------

Db-8--8~-8~-8--8\-|-3--3--5--5--5-5\3-3--8--8~-8~-8--8-8\--

 

Burn me alive inside

Gb--------------------------------------

Db--------------------------------------

AB--------------------------------------

Db-0--0~-0~-0-0-0--0-0--8--8~-8~-8--8\--

 

Living my life's not hard enough Take everything away

Gb------------------------------------------------------------------------

Db------------------------------------------------------------------------

Ab------------------------------------------------------------------------

Db-3--3--5--5--5-5\3-3-3--8--8-8-8~-8-8-8-8-8\--0-0-0-0-0~-0-0-0-0-0-0-8--

 

Gb---------------------------------------------------------

Db---------------------------------------------------------

Ab------------------------------------------------------5--

Db-8-8--8-8-8-8--8-8--8-8-8-8--8-8--8-8-8-8--8-8--8-8-8----

 

(1:13)

Gb-----------------------------

Db----------------------------- X2

Ab-5-5--5-5-5-5--5-5--5-5-5-5--

Db-----------------------------

 

Gb---------------------------

Db---------------------------

Ab-5-5--5-5-5-5--5-5--5-3----

Db------------------------0--

 

2nd Verse (1:23)

Another nightmare about to come true..

Gb-----------------------------

Db----------------------------- X3

Ab-----------------------------

Db-0--0-0-0-0-0--0--0-0-0-0-0--

 

Lost in time on the edge of suffering...

Gb----------------------------

Db-------------------8-8-7----

Ab----------------------------

Db-0--0-0-0-0-0--0-0-------0--

 

Another taste of the evil I breed...

Gb-----------------------------

Db----------------------------- X3

Ab-----------------------------

Db-0--0-0-0-0-0--0--0-0-0-0-0--

 

Live in the dark and the world is threatening...

Gb----------------------

Db----------------------

Ab----------------------

Db-0--0-0-0-0-0--0-0-0--

 

Pre-Chorus (1:42) Let me enlighten you

Gb--------------------|---------------------|---------------------

Db--------------------|---------------------|---------------------

Ab--------------------|---------------------|---------------------

Db-7~\--1-1--1--1-3/8-|-7~\---1-1--1--1-3-1-|-7~\--1-1--1--1-3-8--

 

This is the way I pray

Gb--------------------

Db--------------------

Ab--------------------

Db-7~\--3-3-3--3-3-3--

 

Chorus (1:52) Living just isnt hard enough

Gb----------------|----------------------------------------

Db----------------|----------------------------------------

Ab----------------|----------------------------------------

Db-8--8~-8~-8--8\-|-3--3--5--5--5-5\3-3--8--8~-8~-8--8-8\--

 

Burn me alive inside

Gb--------------------------------------

Db--------------------------------------

AB--------------------------------------

Db-0--0~-0~-0-0-0--0-0--8--8~-8~-8--8\--

 

Living my life's not hard enough Take everything away

Gb------------------------------------------------------------------------

Db------------------------------------------------------------------------

Ab------------------------------------------------------------------------

Db-3--3--5--5--5-5\3-3-3--8--8-8-8~-8-8-8-8-8\--0-0-0-0-0~-0-0-0-0-0-0-8--

 

Gb------------------------------------------------------------

Db------------------------------------------------------------

Ab-8-8--8-8-8-8--8-8--8-8-8-8--8-8--8-8-8-8--8-8--8-8-8-0~~~--

Db------------------------------------------------------------

 

Interlude (2:21)

Gb----------------------------------------------------

Db----------------------------------------------------

Ab----------------------------------------------------

Db-2-----------------------14\----------------3-3~-3--

 

Bridge (2:30)

Return to me Leave me no one

Gb------------------------------------------------

Db------------------------------------------------

Ab------------------------------------------------

Db-2-2-0-2--2-2-0-2--0-2-0-2--2--0-2---2--0-2--3--

 

Turn to me Cast aside

Gb------------------------------------------------

Db------------------------------------------------

Ab------------------------------------------------

Db-2-2-0-2--2-2-0-2--0-2-0-2--2-2-0-2--3---3~--3--

 

Return to me Leave me no one

Gb-----------------------------------------------

Db-----------------------------------------------

Ab-----------------------------------------------

Db-2-2-0-2--2-2-0-2--0-2-0-2--2--0-2--2--0-2--3--

 

Turn to me You make me turn away

Gb------------------------------------------------

Db------------------------------------------------

Ab------------------------------------------------

Db-2-2-0-2--2-2-0-2--0-2-0-2--2-2-0-2--3---3~--3--

 

Chorus (2:50) Living just isnt hard enough

Gb----------------|----------------------------------------

Db----------------|----------------------------------------

Ab----------------|----------------------------------------

Db-8--8~-8~-8--8\-|-3--3--5--5--5-5\3-3--8--8~-8~-8--8-8\--

 

Burn me alive inside

Gb--------------------------------------

Db--------------------------------------

AB--------------------------------------

Db-0--0~-0~-0-0-0--0-0--8--8~-8~-8--8\--

 

Living my life's not hard enough Take everything away

Gb------------------------------------------------------------------------

Db------------------------------------------------------------------------

Ab------------------------------------------------------------------------

Db-3--3--5--5--5-5\3-3-3--8--8-8-8~-8-8-8-8-8\--0-0-0-0-0~-0-0-0-0-0-0-8--

 

(3:09)

Gb----------------------

Db----------------------

Ab----------------------

Db-8--8---8~-8--8-8--8--

 

Outro-Chorus (3:13

Living just isnt hard enough

Gb------------------------------------------------

Db------------------------------------------------

Ab------------------------------------------------

Db-3--3---5~-5--5-5\3-3-3--3\8--8---8~-8--8-8--8--

 

Burn me alive inside

Gb--------------------------

Db--------------------------

Ab--------------------------

Db-3--3~--5~-5--5--5\3-3-3--

 

Living my life's not hard enough

Gb----------------------------------------------

Db----------------------------------------------

Ab----------------------------------------------

Db-3--3~--5~-5--5--5\3-3-3--3\8-8--8~-8--8-8-8--

 

Take everything away

Gb--------------------------

Db--------------------------

Ab--------------------------

Db-3--3--5-5--5--5-5-3-3-8--

 

Outro (3:29)

Gb----------------------------------------------------------------------------------------------------

Db----------------------------------------------------------------------------------------------------

Ab----------------------------------------------------------------------------------------------------

Db-8--8-8-8-8--8-8--8-8-8-8--8-8--8-8-8-8--8-8--8-8-8-0--0--0-0-0-0-0--0--0-0-0-0-0--0--0-0-0-0-0--0--

 

Thats it, this song is the best.

If you like this song, get the album and listen to#5,#6,#7 and #11,

those are my favorites.

I tried to put the words exactly were they play

but it wasnt working for the most part cuz the words got to long.

They are just there so you know were they are.

Enjoy!!

This tab is 100% correct. GW

Please rate this tab, Thanks.

 

Return to my Disturbed bass tabs page

The Tablature is Copyright its respective owners.

Sign Up For My Newsletter
Subscribe | Unsubscribe

Site Map | Disclaimer | Privacy Policy | Media Kit | Submissions/Corrections

Website © 2000-2014 mattsmusicpage.com. All rights reserved.

Legal & DMCA: Matt's Music Page has been providing lyrics and tabs in a legal way, paying royalties each year to a few organizations. Then, all lyrics and tabs were removed from the site. Now, there's a new owner to the site, which purchased it August 26, 2014, and he is in negotiation to obtain licensing from BMI at the moment. If you have a specific DMCA request -- please do not hesitate to contact me via the contact button on top. I will do my very best to keep this site fully legal.

Get our toolbar!