Your One-Stop Source For
Music Lyrics
Bass and Guitar Tabs
and More...
Music Lyrics Bass and Guitar Tabs

 

The Disturbed Guitar Tabs Are Below

Learn To Read Tab
Chords Handbook
Corrections & Additions
Get Official Tab
Disturbed tabs @ 911Tabs

Song: Asylum

Album: Asylum

Band: Disturbed

Tuning: Eb - Ab - Db - Gb - Bb - Eb

 

 

It sounds really right to me, and the tuning is correct!

Comments are welcome =)

 

 

|----------------------------------------------------------------|

|----------------------------------------------------------------|

|----------------------------------------------------------------|

|-9---------10---------------------9-----10----------------------|

|-7---------8------7-----8-----7\5-7-----8-----7-----8-----5555--|

|---0-0-0-0----0-0-5-0-0-6-0-0-5\3---0-0---0-0-5-0-0-6-0-0-3333--|

* * * * * * * * * * * * * * * * * *

|----------------------------------------------------------------|

|----------------------------------------------------------------|

|----------------------------------------------------------------|

|-9---------10---------------------9-----10----------------5555--|

|-7---------8------7-----8-----7\5-7-----8-----7-----8-----3333--|

|---0-0-0-0----0-0-5-0-0-6-0-0-5\3---0-0---0-0-5-0-0-6-0-0-------|

* * * * * * * * * * * * * * * * * *

 

Verse 1 0:32 - 0:53

|----------------------------------------------------------------|

|----------------------------------------------------------------|

|----------------------------------------------------------------|

|----------------------------------------------------------------|

|-7---------8----------------------7-----8-----------------------|

|---0-0-0-0----0-0-5-0-0-6-0-0-5p3---0-0---0-0-5-0-0-6-0-0-3333--|

* * * * * * * * * * * * * * * * * *

 

|----------------------------------------------------------------|

|----------------------------------------------------------------|

|----------------------------------------------------------------|

|----------------------------------------------------------5555--|

|-7---------8----------------------7-----8-----------------3333--|

|---0-0-0-0----0-0-5-0-0-6-0-0-5\3---0-0---0-0-5-0-0-6-0-0-------|

* * * * * * * * * * * * * * * * * *

|----------------------------------------------------------------|

|----------------------------------------------------------------|

|----------------------------------------------------------------|

|-9---------10---------------------9-----10----------------------|

|-7---------8------7-----8-----7\5-7-----8-----7-----8-----5555--|

|---0-0-0-0----0-0-5-0-0-6-0-0-5\3---0-0---0-0-5-0-0-6-0-0-3333--|

* * * * * * * * * * * * * * * * * *

|----------------------------------------------------------------|

|----------------------------------------------------------------|

|----------------------------------------------------------------|

|-9---------10---------------------9-----10----------------5555--|

|-7---------8------7-----8-----7\5-7-----8-----7-----8-----3333--|

|---0-0-0-0----0-0-5-0-0-6-0-0-5\3---0-0---0-0-5-0-0-6-0-0-------|

* * * * * * * * * * * * * * * * * *

 

Post verse / Pre chorus 0:53 - 1:03

|----------------------------------------------------------------|

|----------------------------------------------------------------|

|----------------------------------------------------------------|

|----------------------------------------------------------------|

|-999999-3322222-5577-999-3322222-555-773333---------------------|

|-777777-1100000-3355-777-1100000-333-551111---------------------|

 

 

|----------------------------------------------------------------|

|----------------------------------------------------------------|

|----------------------------------------------------------------|

|----------------------------------------------------------------|

|-999999-3322222-5577-999-3322222-555-773333---------------------|

|-777777-1100000-3355-777-1100000-333-551111---------------------|

 

 

Pre Verse 1:04 - 1:14

|----------------------------------------------------------------|

|----------------------------------------------------------------|

|----------------------------------------------------------------|

|-9---------10---------------------9-----10----------------------|

|-7---------8------7-----8-----7\5-7-----8-----7-----8-----5555--|

|---0-0-0-0----0-0-5-0-0-6-0-0-5\3---0-0---0-0-5-0-0-6-0-0-3333--|

* * * * * * * * * * * * * * * * * *

 

|----------------------------------------------------------------|

|----------------------------------------------------------------|

|----------------------------------------------------------------|

|-9---------10---------------------9-----10----------------5555--|

|-7---------8------7-----8-----7\5-7-----8-----7-----8-----3333--|

|---0-0-0-0----0-0-5-0-0-6-0-0-5\3---0-0---0-0-5-0-0-6-0-0-------|

* * * * * * * * * * * * * * * * * *

 

 

Verse 2 1:15 - 1:24

 

|----------------------------------------------------------------|

|----------------------------------------------------------------|

|----------------------------------------------------------------|

|----------------------------------------------------------------|

|-7---------8----------------------7-----8-----------------------|

|---0-0-0-0----0-0-5-0-0-6-0-0-5p3---0-0---0-0-5-0-0-6-0-0-3333--|

* * * * * * * * * * * * * * * * * *

 

|----------------------------------------------------------------|

|----------------------------------------------------------------|

|----------------------------------------------------------------|

|-9---------10---------------------9-----10----------------5555--|

|-7---------8------7-----8-----7\5-7-----8-----7-----8-----3333--|

|---0-0-0-0----0-0-5-0-0-6-0-0-5\3---0-0---0-0-5-0-0-6-0-0-------|

* * * * * * * * * * * * * * * * * *

 

Post verse / Pre chorus 1:25 - 1:35

|----------------------------------------------------------------|

|----------------------------------------------------------------|

|----------------------------------------------------------------|

|----------------------------------------------------------------|

|-999999-3322222-5577-999-3322222-555-773333---------------------|

|-777777-1100000-3355-777-1100000-333-551111---------------------|

 

|----------------------------------------------------------------|

|----------------------------------------------------------------|

|----------------------------------------------------------------|

|----------------------------------------------------------------|

|-999999-3322222-5577-999-3322222-555---12~~---------------------|

|-777777-1100000-3355-777-1100000-333----------------------------|

 

 

Chorus 1:36 - 1:56

|----------------------------------------------------------------|

|----------------------------------------------------------------|

|----------------------------------------------------------------|

|-9\------------------------------3------------------------------|

|-7\-----------3-2----------------1-----2-----33-----------------|

|----0-0-0-0-0-1-0-0-0-0-0-000-0----0-0-0-0-0-11-000-0-0-000-----|

* * * * * * * * * *** * * * * * *** * * ***

 

|----------------------------------------------------------------|

|----------------------------------------------------------------|

|----------------------------------------------------------------|

|-99\------------------------------3-----------------------------|

|-77\-----------3-2----------------1-----2-----33-----5--5--5----|

|-----0-0-0-0-0-1-0-0-0-0-0-000-0----0-0-0-0-0-11-000-3--3--3----|

* * * * * * * * * *** * * * * * *** * * *

|----------------------------------------------------------------|

|----------------------------------------------------------------|

|----------------------------------------------------------------|

|-99\------------------------------3-----------------------------|

|-77\-----------3-2----------------1-----2-----33----------------|

|-----0-0-0-0-0-1-0-0-0-0-0-000-0----0-0-0-0-0-11-000-0-0-000----|

* * * * * * * * * *** * * * * * *** * * ***

|----------------------------------------------------------------|

|----------------------------------------------------------------|

|----------------------------------------------------------------|

|---------------------10--9--------9----10p9----9p7--------------|

|-7-7-----7-777777------------10-------------10----10-9----------|

|-5-5-5-5-5-555555--7---7---7----7---7---------------------------|

* * * * * * *

 

Pre Verse 1:57 - 2:07

|----------------------------------------------------------------|

|----------------------------------------------------------------|

|----------------------------------------------------------------|

|-9---------10---------------------9-----10----------------------|

|-7---------8------7-----8-----7\5-7-----8-----7-----8-----5555--|

|---0-0-0-0----0-0-5-0-0-6-0-0-5\3---0-0---0-0-5-0-0-6-0-0-3333--|

* * * * * * * * * * * * * * * * * *

 

|----------------------------------------------------------------|

|----------------------------------------------------------------|

|----------------------------------------------------------------|

|-9---------10---------------------9-----10----------------5555--|

|-7---------8------7-----8-----7\5-7-----8-----7-----8-----3333--|

|---0-0-0-0----0-0-5-0-0-6-0-0-5\3---0-0---0-0-5-0-0-6-0-0-------|

* * * * * * * * * * * * * * * * * *

 

Verse 3 (GUITARPART!) 2:18 - 2:29

|----------------------------------------------------------------|

|----------------------------------------------------------------|

|----------------------------------------------------------------|

|-9---------10---------------------9-----10----------------------|

|-7---------8------7-----8-----7\5-7-----8-----7-----8-----5555--|

|---0-0-0-0----0-0-5-0-0-6-0-0-5\3---0-0---0-0-5-0-0-6-0-0-3333--|

 

|----------------------------------------------------------------|

|----------------------------------------------------------------|

|----------------------------------------------------------------|

|-9---------10---------------------9-----10----------------5555--|

|-7---------8------7-----8-----7\5-7-----8-----7-----8-----3333--|

|---0-0-0-0----0-0-5-0-0-6-0-0-5\3---0-0---0-0-5-0-0-6-0-0-------|

* * * * * * * * * * * * * * * * * *

Post verse / Pre chorus 2:29 - 2:39

|----------------------------------------------------------------|

|----------------------------------------------------------------|

|----------------------------------------------------------------|

|----------------------------------------------------------------|

|-999999-3322222-5577-999-3322222-555-773333---------------------|

|-777777-1100000-3355-777-1100000-333-551111---------------------|

 

|----------------------------------------------------------------|

|----------------------------------------------------------------|

|----------------------------------------------------------------|

|----------------------------------------------------------------|

|-999999-3322222-5577-999-3322222-555---12~~---------------------|

|-777777-1100000-3355-777-1100000-333----------------------------|

 

 

Chorus 2:40 - 3:03

|----------------------------------------------------------------|

|----------------------------------------------------------------|

|----------------------------------------------------------------|

|-9\------------------------------3------------------------------|

|-7\-----------3-2----------------1-----2-----33-----------------|

|----0-0-0-0-0-1-0-0-0-0-0-000-0----0-0-0-0-0-11-000-0-0-000-----|

 

* * * * * * * * * *** * * * * * *** * * ***

|----------------------------------------------------------------|

|----------------------------------------------------------------|

|----------------------------------------------------------------|

|-99\------------------------------3-----------------------------|

|-77\-----------3-2----------------1-----2-----33-----5--5--5----|

|-----0-0-0-0-0-1-0-0-0-0-0-000-0----0-0-0-0-0-11-000-3--3--3----|

* * * * * * * * * *** * * * * * *** * * *

|----------------------------------------------------------------|

|----------------------------------------------------------------|

|----------------------------------------------------------------|

|-99\------------------------------3-----------------------------|

|-77\-----------3-2----------------1-----2-----33----------------|

|-----0-0-0-0-0-1-0-0-0-0-0-000-0----0-0-0-0-0-11-000-0-0-000----|

* * * * * * * * * *** * * * * * *** * * ***

|----------------------------------------------------------------|

|----------------------------------------------------------------|

|----------------------------------------------------------------|

|---------------------10--9--------9----10p9----9p7--------------|

|-7-7-----7-777777------------10-------------10----10-9----------|

|-5-5-5-5-5-555555--7---7---7----7---7---------------------------|

* * * * * * *

|----------------------------------------------------------------|

|----------------------------------------------------------------|

|----------------------------------------------------------------|

|----------------------------------------------------------------|

|--2~------------------------------------------------------------|

|--0~------------------------------------------------------------|

 

 

 

Interlude 3:04 - 3:48

|----------------------------------------------------------------|

|----------------------------------------------------------------|

|----------------------------------------------------------------|

|------101077-------101077---------------------------------------|

|--2---8-8-55---2---8-8-55----2----------------------------------|

|--0------------0-------------0----------------------------------|

 

 

|----------------------------------------------------------------|

|----------------------------------------------------------------|

|----------------------------------------------------------------|

|-------444--777--10101010\777--------444-7/10-------------------|

|--222--222--555--8-8-8-8-\555---222--222-5/8--------------------|

|--000---------------------------000-----------------------------|

 

|----------------------------------------------------------------|

|----------------------------------------------------------------|

|----------------------------------------------------------------|

|-------444--777--10101010\777--------444-777--------------------|

|--222--222--555--8-8-8-8-\555---222--222-555--------------------|

|--000---------------------------000-----------------------------|

 

|----------------------------------------------------------------|

|----------------------------------------------------------------|

|----------------------------------------------------------------|

|-------444--777--10101010\777--------444-7/10-------------------|

|--222--222--555--8-8-8-8-\555---222--222-5/8--------------------|

|--000---------------------------000-----------------------------|

 

 

|----------------------------------------------------------------|

|----------------------------------------------------------------|

|----------------------------------------------------------------|

|-------444--777--10101010\777--------444-777--------------------|

|--222--222--555--8-8-8-8-\555---222--222-555--------------------|

|--000---------------------------000-----------------------------|

 

 

|-----------------------------------------------------------------|

|-----------------------------------------------------------------|

|-----------------------------------------------------------------|

|--5--5-----4--4-----5---7------------------------------4---------|

|--3--3-3-3-3--3-3-3-3-3-5--0-0-0-0-0-0-0-0-0-0-0-0-0-0-2---------|

|-----------------------------------------------------------------|

* * * * * * * * * * * * * *

 

|----------------------------------------------------------------|

|----------------------------------------------------------------|

|----------------------------------------------------------------|

|--5-5-----4-4-----5---7-----------------------------------------|

|--3-3-3-3-3-3-3-3-3-3-5--2-----2-----2-----Harmonic slide-------|

|-------------------------0-0-0-0-0-0-0-0-0-2/8------------------|

* * * * * * * * * * *

 

|-----------------------------------------------------------------|

|-----------------------------------------------------------------|

|-----------------------------------------------------------------|

|--5--5-----4--4-----5---7--2-----2-----2-----2-----2---5---------|

|--3--3-3-3-3--3-3-3-3-3-5--0-0-0-0-0-0-0-0-0-0-0-0-0-0-3---------|

|-----------------------------------------------------------------|

* * * * * * * * * * * * * *

 

|-----------------------------------------------------------------|

|-----------------------------------------------------------------|

|-----------------------------------------------------------------|

|--4--4-----4--4444444--33333333----------------------------------|

|--2--2-2-2-2--2222222--11111111--55555533------------------------|

|---------------------------------33333311------------------------|

* *

 

 

Last chorus 3:49 - 4:10

|----------------------------------------------------------------|

|----------------------------------------------------------------|

|----------------------------------------------------------------|

|-9\------------------------------3------------------------------|

|-7\-----------332----------------1-----2-----33-----------------|

|----0-0-0-0-0-110-0-0-0-0-000-0----0-0-0-0-0-11-000-0-0-000-----|

* * * * * * * * * *** * * * * * *** * * ***

|----------------------------------------------------------------|

|----------------------------------------------------------------|

|----------------------------------------------------------------|

|-99\------------------------------3-----------------------------|

|-77\-----------332----------------1-----2-----33-----5--5--5----|

|-----0-0-0-0-0-110-0-0-0-0-000-0----0-0-0-0-0-11-000-3--3--3----|

* * * * * * * * * *** * * * * * *** * * *

|----------------------------------------------------------------|

|----------------------------------------------------------------|

|----------------------------------------------------------------|

|-99\------------------------------3-----------------------------|

|-77\-----------332----------------1-----2-----33----------------|

|-----0-0-0-0-0-110-0-0-0-0-000-0----0-0-0-0-0-11-000-0-0-000----|

* * * * * * * * * *** * * * * * *** * * ***

|----------------------------------------------------------------|

|----------------------------------------------------------------|

|----------------------------------------------------------------|

|---------------------10--9--------9----10p9----9p7--------------|

|-7-7-----7-777777------------10-------------10----10-9----------|

|-5-5-5-5-5-555555--7---7---7----7---7---------------------------|

* * * * * * *

 

 

Outro 4:11 - 4:32

 

|-------------------------------------------------------------------|

|-------------------------------------------------------------------|

|-------------------------------------------------------------------|

|-9---------10---------------------99----------------10p9----9p7----|

|-7---------8------7-----8-----7\5-77---------------------10----10-9|

|---0-0-0-0----0-0-5-0-0-6-0-0-5\3----0-0-0-0-0-0-0-----------------|

* * * * * * * * * * * * * * * * *

|-------------------------------------------------------------------|

|-------------------------------------------------------------------|

|-------------------------------------------------------------------|

|-9---------10---------------------99----------------10p9----9p7----|

|-7---------8------7-----8-----7\5-77---------------------10----10-9|

|---0-0-0-0----0-0-5-0-0-6-0-0-5\3----0-0-0-0-0-0-0-----------------|

* * * * * * * * * * * * * * * * *

|-------------------------------------------------------------------|

|-------------------------------------------------------------------|

|-------------------------------------------------------------------|

|-9---------10---------------------99----------------10p9----9p7----|

|-7---------8------7-----8-----7\5-77---------------------10----10-9|

|---0-0-0-0----0-0-5-0-0-6-0-0-5\3----0-0-0-0-0-0-0-----------------|

* * * * * * * * * * * * * * * * *

|-------------------------------------------------------------------------|

|-------------------------------------------------------------------------|

|-------------------------------------------------------------------------|

|-9---------10---------------------99----------------10p9----9p7-------9\-|

|-7---------8------7-----8-----7\5-77---------------------10----10-9---7\-|

|---0-0-0-0----0-0-5-0-0-6-0-0-5\3----0-0-0-0-0-0-0-----------------------|

* * * * * * * * * * * * * * * * *

Return to my Disturbed Guitar Tabs page

The Disturbed Guitar Tablature is Copyright its respective owners.

Sign Up For My Newsletter
Subscribe | Unsubscribe

Site Map | Disclaimer | Privacy Policy | Media Kit | Submissions/Corrections

Website © 2000-2014 mattsmusicpage.com. All rights reserved.

Legal & DMCA: Matt's Music Page has been providing lyrics and tabs in a legal way, paying royalties each year to a few organizations. Then, all lyrics and tabs were removed from the site. Now, there's a new owner to the site, which purchased it August 26, 2014, and he is in negotiation to obtain licensing from BMI at the moment. If you have a specific DMCA request -- please do not hesitate to contact me via the contact button on top. I will do my very best to keep this site fully legal.

Get our toolbar!