Your One-Stop Source For
Music Lyrics
Bass and Guitar Tabs
and More...
Music Lyrics Bass and Guitar Tabs

 

The Tabs Are Below

Learn To Read Tab
Chords Handbook
Corrections & Additions
Get Official Tab
Depeche Mode tabs @ 911Tabs

Song: When the Body Speaks

Artist: Depeche Mode

Album: Exciter

By: Martin Gore

Transcribed by: Nat Hostetler (ultimavatar@yahoo.com)

 

This is a very pretty and very sad song.

I have always felt like Martin can read my mind as he

writes songs like "I want you now"and such, and here's

another one. I know exactly what he's talking about.

I have no Idea if this is right, but it sound pretty

close. If anybody could help, that would be great. I

especially had trouble with the chorus chords. This is

my first time transcribing something.

****UPDATE****

Someone emailed me and helped out with the chords. In

sheer stupitidy, I accidentally deleted the email, and

so our masked hero will remain nameless.

 

The song starts out with some kind off synth bass line

that carries

out through the whole song pretty much and a strings

section.

Then he starts singing and the guitar kicks in right

away

 

Riff 1

e|---------------------------------------------------->

B|-12--12----15--15----13--13----13--13--15----------->

G|---12--12----12--12----12--12----12--12------------->

D|---------12--------12--------12--------------------->

A|---------------------------------------------------->

E|---------------------------------------------------->

 

Riff 2

e|---------------------------------------------------->

B|-12--12-----10-10-----8---8-----7---7---/----------->

G|---12--12----11--11-----9--9------7--7--/----------->

D|---------12--------12-------10--------7-/----------->

A|---------------------------------------------------->

E|---------------------------------------------------->

 

 

 

Riff 3

e|-----------------------------------------------------

B|-12----12----15----15----13----13----13----13--15--12

G|---12----12----12----12----12----12----12------------

D|-----12----12----12----12----12----12----12----------

A|-----------------------------------------------------

E|-----------------------------------------------------

 

Chorus chords:

e|---7--7--7--7--7--7--7--7--

B|---8--8--8--8--7--7--7--7--

G|---9--9--9--9--7--7--7--7--

D|---9--9--9--9--9--9--9--9--

A|---7--7--7--7--9--9--9--9--

E|---7--7--7--7--7--7--7--7-- x 2

 

e|---5--5--5--5--7--7--7--7--

B|---5--5--5--5--7--7--7--7--

G|---5--5--5--5--7--7--7--7--

D|---7--7--7--7--9--9--9--9--

A|---7--7--7--7--9--9--9--9--

E|---5--5--5--5--7--7--7--7-- x 2

 

 

Return to my to my Depeche Mode tabs page

The Tablature is Copyright its respective owners.

Sign Up For My Newsletter
Subscribe | Unsubscribe

Site Map | Disclaimer | Privacy Policy | Media Kit | Submissions/Corrections

Website © 2000-2014 mattsmusicpage.com. All rights reserved.

Legal & DMCA: Matt's Music Page has been providing lyrics and tabs in a legal way, paying royalties each year to a few organizations. Then, all lyrics and tabs were removed from the site. Now, there's a new owner to the site, which purchased it August 26, 2014, and he is in negotiation to obtain licensing from BMI at the moment. If you have a specific DMCA request -- please do not hesitate to contact me via the contact button on top. I will do my very best to keep this site fully legal.

Get our toolbar!

 

VINTAGE SORRENTO MUSIC JEWELRY BOX
$45.0
VINTAGE SORRENTO MUSIC JEWELRY BOX picture


VINTAGE LACQUERED MUSIC BOX JAPAN
$25.99
VINTAGE LACQUERED MUSIC BOX JAPAN picture


Vintage Kehlsteinhaus Bavaria Germany Colorscope Cow Bell View Master Music Box
$8.99
Vintage Kehlsteinhaus Bavaria Germany Colorscope Cow Bell View Master Music Box picture


VINTAGE SCHMIDT Signed Collectible Musical Turning Clown
$9.99
VINTAGE  SCHMIDT Signed Collectible Musical Turning Clown picture


Vintage - Linen - Postcard - Stage - Radio City Music Hall - New York City
$3.75
Vintage - Linen - Postcard - Stage - Radio City Music Hall - New York City   picture