Your One-Stop Source For
Music Lyrics
Bass and Guitar Tabs
and More...
Music Lyrics Bass and Guitar Tabs

 

The Tabs Are Below

Learn To Read Tab
Chords Handbook
Corrections & Additions
Get Official Tab
David Bowie tabs @ 911Tabs

Ben Toomey (toomey@sos.net)

 

Heaven's in Here

 

Riff 1

e-------------------------

B-------------------------

G-------------------------

D------0-----2-----0----2-

A---02----02----02----02--

E-0-----------------------

1 2 3 4 1 2 3 4

 

Play that over and over again. Well, everywhere except the verses, as

a matter of fact. Guitar 2 plays some riffs at the beginning, but I'm

not going to bother figuring out all the solos.

 

Riffs (not even going to try to time it, just listen the the recording.)

 

e -0-0-------------0------------------7--5-5------

B -0-0-------------5-3----------------7---7-5-----

G ---------------------424-------------------7----

D -------------------------2----------------------

 

Then the verses, the chords go

E D G D

e -7------5------10-----5-----

B -9------7------12-----7-----

G -9------7------12-----7-----

 

 

Return to my to my David Bowie tabs page

The Tablature is Copyright its respective owners.

Sign Up For My Newsletter
Subscribe | Unsubscribe

Site Map | Disclaimer | Privacy Policy | Media Kit | Submissions/Corrections

Website © 2000-2014 mattsmusicpage.com. All rights reserved.

Legal & DMCA: Matt's Music Page has been providing lyrics and tabs in a legal way, paying royalties each year to a few organizations. Then, all lyrics and tabs were removed from the site. Now, there's a new owner to the site, which purchased it August 26, 2014, and he is in negotiation to obtain licensing from BMI at the moment. If you have a specific DMCA request -- please do not hesitate to contact me via the contact button on top. I will do my very best to keep this site fully legal.

Get our toolbar!