Your One-Stop Source For
Music Lyrics
Bass and Guitar Tabs
and More...
Music Lyrics Bass and Guitar Tabs

 

The Tabs Are Below

Learn To Read Tab
Chords Handbook
Corrections & Additions
Get Official Tab
David Bowie tabs @ 911Tabs

David Bowie - Slow Burn

From the album "Heathen" (2002)

 

Hi, I've tabbed a few bass lines out for myself before but this is my first

official posting so be gentle. This is the great new song by David Bowie

which I think has a pretty funky and enjoyable bass line.

 

4:4 Standard Tuning

 

Intro & Verses

This is the main riff throughout the whole song, play it over until you get

to a chorus.

G|-----------------|-----------------|-----------------|-------------2-0-||

D|-3-3-3-3-3---0---|-3-3-3-3-3---0---|-2-2-2-2-2---0---|---------2-2-----||

A|-----------3---3-|-----------3---3-|-----------3---3-|-0-0-3-3---------||

E|-----------------|-----------------|-----------------|-----------------||

 

Chorus

G|-----------------|-----------------|-----------------|-----------------||

D|-0---0--0--------|-0---0--0--------|-3---3--3--------|-3-3-2-2-0-0-----||

A|-----------0--3--|-----------0--3--|-----------0--3--|-------------3-3-||

E|-----------------|-----------------|-----------------|-----------------||

 

G|-----------------|-----------------|-----------------|-----------------|

D|-----------------|-----------------|-----------------|-----------------|

A|-1-1-1-1-1-1-1-1-|-1-1-1-1-1-1-0---|-----------------|-----0-0-1-1-3-3-|

E|-----------------|---------------3-|-3-3-3-3-3-3-3-3-|-3-3-------------|

 

 

Return to my to my David Bowie bass tabs page

The Tablature is Copyright its respective owners.

Sign Up For My Newsletter
Subscribe | Unsubscribe

Site Map | Disclaimer | Privacy Policy | Media Kit | Submissions/Corrections

Website © 2000-2014 mattsmusicpage.com. All rights reserved.

Legal & DMCA: Matt's Music Page has been providing lyrics and tabs in a legal way, paying royalties each year to a few organizations. Then, all lyrics and tabs were removed from the site. Now, there's a new owner to the site, which purchased it August 26, 2014, and he is in negotiation to obtain licensing from BMI at the moment. If you have a specific DMCA request -- please do not hesitate to contact me via the contact button on top. I will do my very best to keep this site fully legal.

Get our toolbar!

 

VINTAGE SORRENTO MUSIC JEWELRY BOX
$45.0
VINTAGE SORRENTO MUSIC JEWELRY BOX picture


VINTAGE LACQUERED MUSIC BOX JAPAN
$25.99
VINTAGE LACQUERED MUSIC BOX JAPAN picture


Vintage Kehlsteinhaus Bavaria Germany Colorscope Cow Bell View Master Music Box
$8.99
Vintage Kehlsteinhaus Bavaria Germany Colorscope Cow Bell View Master Music Box picture


VINTAGE SCHMIDT Signed Collectible Musical Turning Clown
$9.99
VINTAGE  SCHMIDT Signed Collectible Musical Turning Clown picture


Vintage - Linen - Postcard - Stage - Radio City Music Hall - New York City
$3.75
Vintage - Linen - Postcard - Stage - Radio City Music Hall - New York City   picture