Your One-Stop Source For
Music Lyrics
Bass and Guitar Tabs
and More...
Music Lyrics Bass and Guitar Tabs

 

The Tabs Are Below

Learn To Read Tab
Chords Handbook
Corrections & Additions
Get Official Tab
David Bowie tabs @ 911Tabs

David Bowie

Reality

Bass Tab - Normal Tuning: EADG

 

 

 

 

 

Riff 1

g|------------------------------------------------------------------------|

d|-------------------------------------------------------7-5--------------|

a|-------------------------6-7-6------------------------------7-5---------|

e|--7-7--7-7--7-7--7---------------7/5-5--5-5---5-5---5-------------7-5---|

 

 

g|-------------------------------------------------------------------|

d|---------------------------------------------------7-5-------------|

a|--------------------------------------------------------7-5--------|

e|--7-7--7-7--7-7--7/19-19-19-19/5-5--5-5---5-5---5------------7-5---|

 

 

g|-----------------------------------------------------------------------|

d|-----------------------------------------------------7-5---------------|

a|--------------------6-7-9-7-6-----------------------------7-5----------|

e|--7-7--7-7--7-7--7---------------5-5--5-5---5-5---5-------------7-5----|

 

 

g|---------------------------------------------------------------------------------|

d|---------------------------------------------------------------7-5---------------|

a|--------------------------18-19-18----------------------------------7-5----------|

e|--7-7--7-7--7-7--7/19-19-------------19-19/5-5--5-5---5-5---5------------7-5-----|

 

 

 

Riff 2

g|----------------------------------------------|

d|------------------------------6-7-6h7p6-------|

a|-------55-5-5-5/7-7-7-7-----7------------7----|

e|-------------------------0--------------------|

 

 

 

Riff 3

g|----------------------------------------------------------|

d|----------------------------------------------------------|

a|--------3-3-33-3-3-5-7-5-3-3/9-9-99-9-9-7-----------------|

e|-------------------------------------------9-7------------|

 

 

 

Riff 4

g|--------------------------------------------------------|

d|----------------------------------------11-9-8----------|

a|--------3-3-33-3-3-5-7-5-3-3/9-9-99-9-9--------9--------|

e|--------------------------------------------------------|

 

 

 

"Welcome to reality.."

g|-------------------------------|

d|-------------------------------|

a|-------3-3-3-3/5-5-5-----------|

e|-------------------------------|

 

 

 

Order:

 

Riff 1 x1

Riff 2 x6

Riff 3 x3

"Welsome to reality..."

Riff 1 x1

Riff 2 x6

Riff 4 x3

"Welcome to reality..."

Riff 1 x1/2

ACOUSTIC PART - NO BASS

Riff 1 till end

 

 

Return to my to my David Bowie bass tabs page

The Tablature is Copyright its respective owners.

Sign Up For My Newsletter
Subscribe | Unsubscribe

Site Map | Disclaimer | Privacy Policy | Media Kit | Submissions/Corrections

Website © 2000-2014 mattsmusicpage.com. All rights reserved.

Legal & DMCA: Matt's Music Page has been providing lyrics and tabs in a legal way, paying royalties each year to a few organizations. Then, all lyrics and tabs were removed from the site. Now, there's a new owner to the site, which purchased it August 26, 2014, and he is in negotiation to obtain licensing from BMI at the moment. If you have a specific DMCA request -- please do not hesitate to contact me via the contact button on top. I will do my very best to keep this site fully legal.

Get our toolbar!