Your One-Stop Source For
Music Lyrics
Bass and Guitar Tabs
and More...
Music Lyrics Bass and Guitar Tabs

 

The Tabs Are Below

Learn To Read Tab
Chords Handbook
Corrections & Additions
Get Official Tab
David Bowie tabs @ 911Tabs

The Man Who Sold The World- David Bowie

Intro

 

|----------------------------------------|

|----------------------------------------|

|—7-7------7-7-----7-7-----7-7------4----|

|--------7---------7-------7--------7----|

 

Verse

 

|-------------------------------------------------------------------------|

|-----------------------------------------------6-6----6------6-6----6----|

|--------6-6------6--------6-6-----6----4-4------4----4-4------4----------|

|—4-4-------4-------4-4-------4-------------------------------------------|

 

|--------------------------------------------------------------------------|

|-----------------------------------------------9-9-----9------9-9----9----|

|--------6-6------6--------6-6-----6----7-7-------7-----7-7-----7----------|

|—4-4-------4-------4-4-------4--------------------------------------------|

 

|--------------------------------------|

|--------------------------------------|

|--------6-6------6--------6-6-----6—--|

|—4-4-------4-------4-4-------4--------|

 

Chorus

|------------1-2-4---------------------------------------------------------------------------1-2-4----------|

|-----1-2-4--------------------------1-2----------2---------------------1-2---------1-2-4---------------2---|

|-2-4--------------------------0-2-4--------3--3----4-----------0-2-4---------2-4------------------3-3--3---|

|------------------------0-2-4------------------------------0-2-4-------------------------------------------|

 

|--------------6----|

|-----6-------------|

|-------------------|

|-------------------|

 

Back to Verse.

 

Enjoy

 

 

Return to my to my David Bowie bass tabs page

The Tablature is Copyright its respective owners.

Sign Up For My Newsletter
Subscribe | Unsubscribe

Site Map | Disclaimer | Privacy Policy | Media Kit | Submissions/Corrections

Website © 2000-2014 mattsmusicpage.com. All rights reserved.

Legal & DMCA: Matt's Music Page has been providing lyrics and tabs in a legal way, paying royalties each year to a few organizations. Then, all lyrics and tabs were removed from the site. Now, there's a new owner to the site, which purchased it August 26, 2014, and he is in negotiation to obtain licensing from BMI at the moment. If you have a specific DMCA request -- please do not hesitate to contact me via the contact button on top. I will do my very best to keep this site fully legal.

Get our toolbar!