Your One-Stop Source For
Music Lyrics
Bass and Guitar Tabs
and More...
>Music Lyrics Bass and Guitar Tabs

 

The Tabs Are Below

Learn To Read Tab
Chords Handbook
Corrections & Additions
Get Official Tab
David Bowie tabs @ 911Tabs

Author/Artist: david bowie

Title: let's dance

Transcribed by: fergman

Email: fergman@tampabay.rr.com

 

Standard Tuning

 

-------------------

------------------|

------------------| Intro 4x

-6-6-6-6-6-6-6-6-6|

 

Verse

-------------------|------------------|---------------------------------------

-------------------|------------------|---------------------------------------

-------------------|--------6--4--3---|--------1h3----------------------------

-6--4--3--1--6-6456|-6-6456---------6\|1-1101-----1-1101----------------------

 

-----------------------|-------------------|-------------------|--------------

---------------------8\|-------------------|-------------------|--------------

-----------------------|-------------------|--------6--4--3----|--------------

--6--4--3--1--6-6456---|-6--4--3--1--6-6456|-6-6456----------6\|--------------

 

----------------|-------------------|-------------------|---------------------

----------------|-------------------|-------------------|---------------------

----------------|-------------------|-------------------|--------6--4--3------

-1-11x1--1-11x1-|-6--4--3--1--6-6456|-6--4--3--1--6-6456|-6-6456---------6\---

 

------------------|-------------------|---------------------------------------

------------------|-------------------|---------------------------------------

--------1h3-------|-------------------|---------------------------------------

-1-1101-----1-1101|-6--4--3--1--6-6456|---------------------------------------

 

Chorus

--------------------|----------------|-------------------|--------------------

--------------------|----------------|-------------------|--------------------

-456------4--6--4--6|-6-4-----------6|-6-4--------1-3---4|-666666666----------

-----4-56-----------|-----6-5-4---6--|-----6-4--1-----1--|--------------------

 

 

Return to my to my David Bowie bass tabs page

The Tablature is Copyright its respective owners.

Sign Up For My Newsletter
Subscribe | Unsubscribe

Site Map | Disclaimer | Privacy Policy | Media Kit | Submissions/Corrections

Website © 2000-2014 mattsmusicpage.com. All rights reserved.

Legal & DMCA: Matt's Music Page has been providing lyrics and tabs in a legal way, paying royalties each year to a few organizations. Then, all lyrics and tabs were removed from the site. Now, there's a new owner to the site, which purchased it August 26, 2014, and he is in negotiation to obtain licensing from BMI at the moment. If you have a specific DMCA request -- please do not hesitate to contact me via the contact button on top. I will do my very best to keep this site fully legal.

Get our toolbar!

 

Disneyland Book and Record Mickey Mouse, Brave Little Tailor 7", 33 1/3 LP Vinyl
$5.99
Disneyland Book and Record Mickey Mouse, Brave Little Tailor 7


Disneyland Book and Record 101 Dalmatians, 1965, 7" Vinyl, 33 1/3 LP
$11.49
Disneyland Book and Record 101 Dalmatians, 1965, 7


45 RPM vinyl record spacer button
$2.5
45 RPM vinyl record spacer button picture


the world is a ghetto, war lp, vinyl album, record, collectible
$3.99
the world is a ghetto, war lp, vinyl album, record, collectible picture


Dogfish Head Record Store Day 2016 Craft Beer Pint Glass Album Vinyl NEW
$9.99
Dogfish Head Record Store Day 2016 Craft Beer Pint Glass Album Vinyl NEW picture