Your One-Stop Source For
Music Lyrics
Bass and Guitar Tabs
and More...
Music Lyrics Bass and Guitar Tabs

 

The Tabs Are Below

Learn To Read Tab
Chords Handbook
Corrections & Additions
Get Official Tab
DMB tabs @ 911Tabs

Tabbed by jhp4c2@mizzou.edu

 

Intro is basically:

E----------------------------------------------------------

B-----3---3--------3---3--------3---3-------3----3-------3-

G—0h2-----2----0h2-----2----0h2-----0---0h2------2—--0h2---

D-------0----0-------0----0---------4------------2---------

A---------------------------------2---2--------0---0-------

E----------------------------------------------------------

 

“I am no superman…”

E---------------------------------------------------------

B----3---3---3---3------3---3---3---3-----3---3---3---3---

G----2---2---2---2------2---2---2---2-----2---2---2---2---

D--0-----x---x---x----0-----x---x---x---0-----x---x---x---

A------3---2---1----------3---2---1---------3---2---1-----

E---------------------------------------------------------

 

E---------------------------------------------

B----3---3---3---3---3--------3----3----------

G----2---2---2---2---2--------2----2----------

D--0-----x---x---x---x------0------x----------

A------3---1---1---1---1/2-------3------------

E---------------------------------------------

 

 

Lead in chords to the jam:

E---------------------------

B--3--3--3----3--------------

G--2--2--0----2--------------

D--0--0--4----2--------------

A--------2----0--------------

E---------------------------

 

 

Jam:

E-----3--2-----------------3--2---------------

B-----3--3--3--3--3--------3--3--3--3---------

G-----0--2--4--0--0--------0--2--4--0---------

D-----2--0--4--2--0--------2--0--4--2---------

A-----2-----2--3--2-0-2----2-----2--3---2-3---

E--0--------------3------0------------------0-

 

 

Jam cont’d

E-----3--2-----------------3--2---------------

B-----3--3--3--3--3--------3--3--3--3---------

G-----0--2--4--0--0--------0--2--4--0---------

D-----2--0--4--2--0--------2--0--4--2---------

A-----2-----2--3--2-0-2----2-----2--3---------

E--0--------------3------0--------------------

 

 

Sometimes it sounds like he plays

this live during the verse:

E-----------------------------

B--3---3---3---3--------------

G--2---2---0---2--------------

D--0---0---4---2--------------

A------x---2---0--------------

E------3----------------------

 

 

Return to my to my DMB tabs page

The Tablature is Copyright its respective owners.

Sign Up For My Newsletter
Subscribe | Unsubscribe

Site Map | Disclaimer | Privacy Policy | Media Kit | Submissions/Corrections

Website © 2000-2014 mattsmusicpage.com. All rights reserved.

Legal & DMCA: Matt's Music Page has been providing lyrics and tabs in a legal way, paying royalties each year to a few organizations. Then, all lyrics and tabs were removed from the site. Now, there's a new owner to the site, which purchased it August 26, 2014, and he is in negotiation to obtain licensing from BMI at the moment. If you have a specific DMCA request -- please do not hesitate to contact me via the contact button on top. I will do my very best to keep this site fully legal.

Get our toolbar!