Your One-Stop Source For
Music Lyrics
Bass and Guitar Tabs
and More...
Music Lyrics Bass and Guitar Tabs

 

The Tabs Are Below

Learn To Read Tab
Chords Handbook
Corrections & Additions
Get Official Tab
DMB tabs @ 911Tabs

 

Where Are You Going

By: Dave Matthews Band

Transcribed by: Kevin

taylokm@auburn.edu

 

 

Intro:

e:-------------------------------------------------------------

B:--------3------3--3------------------------------------------

G:--0h2----------2--2------------------------------------------

D:--0--------0---0--0--------repeat however many times you want

A:-------------------------------------------------------------

E:-------------------------------------------------------------

 

Verse:

e:-------------------------------------------------------------

B:--3--3-------3--3--3--3--3-----3---x--x------3--3--3--3--3--3

G:--2--2-------2--2--2--2--2-----2---x--x------2--2--2--2--2--2

D:--0--0-------0--0--0--0--0-----0---x--x------x--x--x--x--x--x

A:------------------------------------------2--2--2--2--2--2--2

E:------------3-----------------3------------------------------

Where are you going…

 

e:-------------------------------------------------------------

B:-----3---x--x-------3--3--3--3----3-----3--------------------

G:-----2---x--x-------2--2--2--2----2-----2--------------------

D:-----x---x--x-------2--2--2--2----2-----2--------------------

A:-2---2-----------0--0--0--0--0----0--0--0--------------------

E:-------------------------------------------------------------

 

1st Chorus:

e:-------------------------------------------------------------

B:-----3------3-----3-----3------------------3------3------3~--

G:-----2------2-----2-----2----3 times-------2------2------0~--

D:--0--0------0-----0-----0------then----0---0------0------0~--

A:----------3-----2-----1------------------------3-------1-----

E:-------------------------------------------------------------

I am no su--per--man…

 

2nd and 3rd Chorus:

 

e:-------------------------------------------------------------

B:-----3------3-----3-----3------------------3------3------3~--

G:-----2------2-----2-----2----3 times-------2------2------0~--

D:--0--0------0-----0-----0------then----0---0------0------0~--

A:----------3-----2-----1------------------------3-------1-----

E:-------------------------------------------------------------

but one thing i do know...

e:-------------------------------------------------------------

B:-----3--3--3--3-------3~-------------------------------------

G:-----2--2--2--2-------2~-------------------------------------

D:--0--0--0--0--0-------0~-------------------------------------

A:-------------------3-----------------------------------------

E:-------------------------------------------------------------

Where you are is where I wanna be...

 

Ending: just strum :-:

:3:

:2:

:0:

:-:

:-:

 

To get the rhythm, just play along with the song. hope you can

figure this out

 

Return to my to my DMB tabs page

The Tablature is Copyright its respective owners.

Sign Up For My Newsletter
Subscribe | Unsubscribe

Site Map | Disclaimer | Privacy Policy | Media Kit | Submissions/Corrections

Website © 2000-2014 mattsmusicpage.com. All rights reserved.

Legal & DMCA: Matt's Music Page has been providing lyrics and tabs in a legal way, paying royalties each year to a few organizations. Then, all lyrics and tabs were removed from the site. Now, there's a new owner to the site, which purchased it August 26, 2014, and he is in negotiation to obtain licensing from BMI at the moment. If you have a specific DMCA request -- please do not hesitate to contact me via the contact button on top. I will do my very best to keep this site fully legal.

Get our toolbar!