Your One-Stop Source For
Music Lyrics
Bass and Guitar Tabs
and More...
Music Lyrics Bass and Guitar Tabs

 

The Tabs Are Below

Learn To Read Tab
Chords Handbook
Corrections & Additions
Get Official Tab
DMB tabs @ 911Tabs

tabbed by jhp4c2@mizzou.edu

 

 

When the World Ends

 

Intro:

E----------------------------------------------------------

B----------------8-------7-----------------8----7----------

G-----7----6-----x-------x------7-----6----x----x---9----7- etc…

D----------------9-------7-----------------9----7---8------

A-------------7-----5-------------------7----5-------------

E--7----5------------------8--7----5-------------------7---

 

 

“I’m gonna rock you like a baby…”

E------------------------------------------

B------------------------------------------

G--5----5---5---5------5--5--5-------------

D--7----3---1---3------7--1--3-------------

A--8----x---x---x------8--x--x-------------

E-------6---4---6-/8------4--6-------------

(tabbed from Charlie Rose Show)

 

 

“But don’t you worry about a thing…”

E--2------------- --2--------------2-------------------

B--3------------- --3--------------3-------------------

G--2---2--4--6--- --2--2--4-----2--2---------7----6---- etc…

D--0---0--5--7--- --0--0--5--2--2--0-------------------

A------x--x--x--- -----x--x--2--0----------------------

E------2--3--5--- -----2--3--0---------8--7----5-------

 

 

 

Return to my to my DMB tabs page

The Tablature is Copyright its respective owners.

Sign Up For My Newsletter
Subscribe | Unsubscribe

Site Map | Disclaimer | Privacy Policy | Media Kit | Submissions/Corrections

Website © 2000-2014 mattsmusicpage.com. All rights reserved.

Legal & DMCA: Matt's Music Page has been providing lyrics and tabs in a legal way, paying royalties each year to a few organizations. Then, all lyrics and tabs were removed from the site. Now, there's a new owner to the site, which purchased it August 26, 2014, and he is in negotiation to obtain licensing from BMI at the moment. If you have a specific DMCA request -- please do not hesitate to contact me via the contact button on top. I will do my very best to keep this site fully legal.

Get our toolbar!