Your One-Stop Source For
Music Lyrics
Bass and Guitar Tabs
and More...
Music Lyrics Bass and Guitar Tabs

 

The Tabs Are Below

Learn To Read Tab
Chords Handbook
Corrections & Additions
Get Official Tab
DMB tabs @ 911Tabs

tabbed by jhp4c2@mizzou.edu

 

 

What You Are

 

Intro:

E------------------- --------------------------------

B------------------- --------------------------------

G-----6--4---------- --7-6----------6-4--------------

D--4--------7-6-4--- --x-x-9-7-6--4-----7-6-4--------

A-----------------7- --5-4-x-x-x--------------7------

E------------------- ------7-5-4---------------------

 

 

“I walk into this room…”

E-------------------- ----------------------------------

B------3------------- ----------------3-----------------

G------2------------- ---2-0---0------2--------------2--

D--4---0-----------4- ---2-2---0---3--0----0---------2--

A--4-----4-2-------4- ---0-3---x---3-----3---3-2-0---0--

E--2---------5--4--2- ---------3---1---------------4----

 

 

 

“Then you become what you are…”

E--------------------------------

B--------------------------------

G------4-------4-----------------

D--4---2---4---2-----------------

A--4---x---4---x-----------------

E--2---4---2---4-----------------

 

 

Return to my to my DMB tabs page

The Tablature is Copyright its respective owners.

Sign Up For My Newsletter
Subscribe | Unsubscribe

Site Map | Disclaimer | Privacy Policy | Media Kit | Submissions/Corrections

Website © 2000-2014 mattsmusicpage.com. All rights reserved.

Legal & DMCA: Matt's Music Page has been providing lyrics and tabs in a legal way, paying royalties each year to a few organizations. Then, all lyrics and tabs were removed from the site. Now, there's a new owner to the site, which purchased it August 26, 2014, and he is in negotiation to obtain licensing from BMI at the moment. If you have a specific DMCA request -- please do not hesitate to contact me via the contact button on top. I will do my very best to keep this site fully legal.

Get our toolbar!