Your One-Stop Source For
Music Lyrics
Bass and Guitar Tabs
and More...
Music Lyrics Bass and Guitar Tabs

 

The Tabs Are Below

Learn To Read Tab
Chords Handbook
Corrections & Additions
Get Official Tab
DMB tabs @ 911Tabs

 

Warehouse

 

[This was created with TabIt for Windows version 1.3]

 

E :----------------------------------- 11----------2---|

B :0-0-0-0--0--0-0-0-0-0-0-0--0--0-0-0 ||2---2-----3---|

G :--------------7-7-7-7--------------*||2---2-----2---|

D :--------11-11---------9-9----------*||2---2---------|

A :----9-9-------------------10-10-9-9 ||--------------|

E :7-7-------------------------------- ||--------------|

 

 

G :----------------------------------- 11--------------|

D :-----------------------------------*||--------------|

A :-----------------------------------*||--------------|

E :----------------------------------- ||--------------|

 

=============================================================================

 

E :3-3-3-3-3-3-3-3-3-|3-3 3|-2---2----------|-------------- 2|--2-|

B :3-3-3-3-3-3-3-3-3-|3-3 ||-2---2---------2|---2---------- ||--3-|

G :0-0-0-0-0-0-0-0-0-|0--*||-4---4-----1---2|---2------1-1-*||1-2-|

D :0-----------------|---*||-4---4-----2---4|---4------2-2-*||2---|

A :2-----------------|--- ||-2---2-----2---4|---4------2-2- ||2---|

E :3-----------------|--- ||-2---2-----0---2|---2------0-0- ||0---|

 

 

G :------------------|--- 3|----------------|-------------- 2|----|

D :------------------|---*||----------------|--------------*||----|

A :------------------|---*||----------------|--------------*||----|

E :------------------|--- ||----------------|-------------- ||----|

 

=============================================================================

 

E :2-2-2-2-2-2-2-3-|3-3-3-3-3-3-| 3|

B :3-3-3-3-3-3-3-3-|3-3-3-3-3-3-| 3|

G :2-2-2-2-2-2-2-0-|0-0-0-0-0-0-|*0|

D :--------------0-|0-0-0-0-0-0-|*0|

A :--------------2-|2-2-2-2-2-2-| 2|

E :--------------3-|3-3-3-3-3-3-| 3|

 

 

G :----------------|------------| -|

D :----------------|------------|*-|

A :----------------|------------|*-|

E :----------------|------------| -|

 

 

 

Return to my to my DMB tabs page

The Tablature is Copyright its respective owners.

Sign Up For My Newsletter
Subscribe | Unsubscribe

Site Map | Disclaimer | Privacy Policy | Media Kit | Submissions/Corrections

Website © 2000-2014 mattsmusicpage.com. All rights reserved.

Legal & DMCA: Matt's Music Page has been providing lyrics and tabs in a legal way, paying royalties each year to a few organizations. Then, all lyrics and tabs were removed from the site. Now, there's a new owner to the site, which purchased it August 26, 2014, and he is in negotiation to obtain licensing from BMI at the moment. If you have a specific DMCA request -- please do not hesitate to contact me via the contact button on top. I will do my very best to keep this site fully legal.

Get our toolbar!

 

Starbucks You Are Here Coffee Mug/Cup KENTUCKY - Horses, Banjo, Blue, White
$19.99
Starbucks You Are Here Coffee Mug/Cup KENTUCKY - Horses, Banjo, Blue, White picture


KNOWLES ROCKWELL HERITAGE "THE BANJO PLAYER" FIRST EDITION 1989 PLATE COA
$5.99
KNOWLES ROCKWELL HERITAGE


Vintage Postcard 1981 Disney World Banjo Kings Main Street USA 1981 Postmark
$4.99
 Vintage Postcard 1981 Disney World Banjo Kings Main Street USA 1981 Postmark picture


Banjo Barometer With Thermometer Hygrometer 490mm
$84.76
Banjo Barometer With Thermometer Hygrometer 490mm picture


ANTIQUE JAPANESE NIPPON FIGURINE SET OF 3 WOMEN GEISHA PLAYING DRUM BANJO FAN
$24.0
ANTIQUE JAPANESE NIPPON FIGURINE SET OF 3 WOMEN GEISHA PLAYING DRUM BANJO FAN picture