Your One-Stop Source For
Music Lyrics
Bass and Guitar Tabs
and More...
Music Lyrics Bass and Guitar Tabs

 

The Tabs Are Below

Learn To Read Tab
Chords Handbook
Corrections & Additions
Get Official Tab
DMB tabs @ 911Tabs

 

Trippin' Billies - Dave Matthews Band

 

[This was created with TabIt for Windows version 1.3]

 

 

E :---------------------------------------------- 1|

B :---------------------------------------------- ||

G :2---4-------2-4--7--6---2---4-------2-4-6-7---*||

D :0---0-------0-0--0--0---0---0-------0-0-0-0---*||

A :0---0-------0-0--0--0---0---0-------0-0-0-0--- ||

E :2---3-------2-3--7--5---2---3-------2-3-5-7--- ||

 

 

 

E :0-----2-----3-----2-----0-----2---*----------- 1|

B :2-----3-----3-----3-----2-----3---*----------- ||

G :2-----2-----0-----2-----2-----2---*-2---4-----*||

D :2-----0-----0-----0-----2-----0---*-0---0-----*||

A :0-----------2-----------0-----------0---0----- ||

E :------------3-----------------------2---3----- ||

We..above..you..under..were..yet.lovers ......

 

 

E :-------------------------------- 2|

B :-------------------------------- ||

G :7-------6-------2-4-6-7---6-----*||

D :0-------0-------0-0-0-0---0-----*||

A :0-------0-------0-0-0-0---0----- ||

E :7-------5-------2-3-5-7---5----- ||

drink..merry,etc. tomo

 

 

E :--------------------------------------------------------------|

B :--------------------------------------------------------------|

G :7-------6-------2-4-6-7----*----------------------------------|

D :0-------0-------0-0-0-0----*----------------------------------|

A :0-------0-------0-0-0-0----*----------------------------------|

E :7-------5-------2-3-5-7----*----------------------------------|

rrow....die 'cause we're trippin' billies

 

 

Return to my to my DMB tabs page

The Tablature is Copyright its respective owners.

Sign Up For My Newsletter
Subscribe | Unsubscribe

Site Map | Disclaimer | Privacy Policy | Media Kit | Submissions/Corrections

Website © 2000-2014 mattsmusicpage.com. All rights reserved.

Legal & DMCA: Matt's Music Page has been providing lyrics and tabs in a legal way, paying royalties each year to a few organizations. Then, all lyrics and tabs were removed from the site. Now, there's a new owner to the site, which purchased it August 26, 2014, and he is in negotiation to obtain licensing from BMI at the moment. If you have a specific DMCA request -- please do not hesitate to contact me via the contact button on top. I will do my very best to keep this site fully legal.

Get our toolbar!